Oops, an error
Loading. Please wait.

93 Million Miles Tab

version 2
version 2

Whole song

4,016 views 33 this week
no commentswrite comment
1 2 3 4 5
excellent!
x 7
add to favorites
launch autoscroll
font size
0
reset
how to read this tab
guitar tuner
Tab Pro tools
  • play this tab
  • loop segment
  • change instrument
  • show fretboard
  • metronome
×
Best way to learn
"93 Million Miles"
Autoscroll
slow
fast
+/-
esc
set tempo
stop
Contributor
Difficulty
Tuning
Capo
intermediate
D G C F A D
1st fret
capo on 1st fret
Drop d on 6th sting

Intro:
1st part:

   D
E|-----------------------------------------|
B|-----------------------------------------|
G|-------2-------2-------------------------|
D|---4-------4-------4---4---2---0---------|
A|-----0---0---0---0---0---0---0-----------|
D|-0---0---0---0---0---0---0---0-----------|

2nd part:

   D5
E|-----------------------3---2-------------|
B|-------3-------3-------3---3---0---------|
G|-------2-------2-------2---2---0---------|
D|---0-------0-------0-----------0---------|
A|-0---0---0---0---0---0---0---0-----------|
D|-0---0---0---0---0---0---0---0-----------|

3rd part:

   G7M
E|-------------------3---2-----------------|
B|-------------------0---0---0-------------|
G|---0-------0-------0---0---0-------------|
D|---4---4-------4-----------0-------------|
A|---5-5---5---5---5---5---5---------------|
D|-5-5-5---5---5---5---5---5---------------|

4th part:
   Em

E|-----------2-0---------------------------|
B|-----------0---3-2/3-3-------------------|
G|---0---0---------------0-----------------|
D|---2---2-----------------0---------------|
A|---2-2-2-2-------------------------------|
D|-2-2-2---2-------------------------------|

5th part:

   D5
E|-----------------------------------------|
B|---3-------3-----------------------------|
G|---2-------2-----------------------------|
D|---0---0-------0---4---2---0-------------|
A|-0-0-0---0---0---0---0---0---------------|
D|-0-0-0---0---0---0---0---0---------------|

6th part:

   D5
E|-----------------------------------------|
B|-----------------------------------------|
G|---2-------2-------2-----2-0-------------|
D|---0---0-------0-------0-0---------------|
A|-0-0-0---0---0---0---0---0---------------|
D|-0-0-0---0---0---0---0---0---------------|

Primary Part:
1st part:

   D5
E|-----------------------------------------|
B|---3-------3-------3-------3-------------|
G|---2-------2-------2-------2-------------|
D|---0---0-------0-------0-----------------|
A|-0-0-0---0---0---0---0---0---------------|
D|-0-0-0---0---0---0---0---0---------------|

2nd part:

   D5
E|-----------------------------------------|
B|-------3-------3-------3-------3---------|
G|-------2-------2-------2-------2---------|
D|---0-------0-------0-------0-------------|
A|-0---0---0---0---0---0---0---0-----------|
D|-0---0---0---0---0---0---0---0-----------|

3rd part:

   G7M
E|-----------------------------------------|
B|-----------------------------------------|
G|---0-------0-------0-------0-------------|
D|---4---4-------4-------4-----------------|
A|---5-5---5---5---5---5---5---------------|
D|-5-5-5---5---5---5---5---5---------------|

4th part:
   Em

E|-----------------------------------------|
B|-----------------------------------------|
G|---0-------0-------0-------0-------------|
D|---2---2-------2-------2-----------------|
A|---2-2---2---2---2---2---2---------------|
D|-2-2-2---2---2---2---2---2---------------|

preparation chorus:

   A         A4      A
E|-----------------------------------------|
B|---2-------3-------2---------------------|
G|---2-------------------------------------|
D|---2---2-2-----2-2-----2-2-2-------------|
A|-0-0-0---0---0---0---0---0---------------|
D|-----------------------------------------|

chorus:
1st part:

   G7M
E|-----------------------------------------|
B|-----------------------------------------|
G|---0-------0-------0-------0-------------|
D|---4---4-------4-------4-----------------|
A|---5-5---5---5---5---5---5---------------|
D|-5-5-5---5---5---5---5---5---------------|

2nd part:

   Em          A
E|-----------------------------------------|
B|-----------------------------------------|
G|---0-------0---2-------2-----------------|
D|---2---2-------2---2---2-----------------|
A|---2-2---2---0-0-0---0-------------------|
D|-2-2-2---2-------------------------------|

introducing variation:
1st part:

   D5
E|-------------------3---2-----------------|
B|---3-------3-------0---0---0-------------|
G|---2-------2-------0---0---0-------------|
D|---0---0-------0-----------0-------------|
A|---0-0---0---0---0---5---5---------------|
D|-0-0-0---0---0---0---5---5---------------|

2nd part:

   G7M
E|-------------------3---2-----------------|
B|-------------------0---0---0-------------|
G|---0-------0-------0---0---0-------------|
D|---4---4-------4-----------0-------------|
A|---5-5---5---5---5---5---5---------------|
D|-5-5-5---5---5---5---5---5---------------|

3rd part:

   Em
E|-----------------------------------------|
B|-----------------------------------------|
G|---0-------0-------0-------0-------------|
D|---2---2-------2-------2-----------------|
A|---2-2---2---2---2---2---2---------------|
D|-2-2-2---2---2---2---2---2---------------|

second chorus:
1st part:

   G7M
E|-----------------------------------------|
B|-----------------------------------------|
G|---0-------0-------0-------0-------------|
D|---4---4-------4-------4-----------------|
A|---5-5---5---5---5---5---5---------------|
D|-5-5-5---5---5---5---5---5---------------|

2nd part:

   Em          A
E|-----------------------------------------|
B|-----------------------------------------|
G|---0-------0---2-------2-----------------|
D|---2---2-------2---2---2-----------------|
A|---2-2---2---0-0-0---0-------------------|
D|-2-2-2---2-------------------------------|

3rd part 2x:

   D5
E|-----------------------------------------|
B|---3-------3-------3-------3-------------|
G|---2-------2-------2-------2-------------|
D|---0---0-------0-------0-----------------|
A|-0-0-0---0---0---0---0---0---------------|
D|-0-0-0---0---0---0---0---0---------------|
Please rate 
comments
print report bad tab
I want to post or [tab]
guest
You may want to rate the tab now too:
select rating
Please do not post tabs as comments. Select "correction" instead!