Oops, an error
Loading. Please wait.

93 Million Miles Tab

version 3
version 3

Whole song

729 views 3 this week
no commentswrite comment
1 2 3 4 5
3 more votes to show rating
add to favorites
launch autoscroll
font size
0
reset
how to read this tab
guitar tuner
Autoscroll
slow
fast
+/-
esc
set tempo
stop
Help us to improve Ultimate-Guitar.com Take our survey!
×
Author
Difficulty
Tuning
Capo
novice
D A D G B E
1st fret
Capo: 1st 
Tuning: Drop D 
Into:
|----------------------------------------------------3--2--x--0---------| 
|--------------------------------------3------3------3--3--x--0---------| 
|------2------2-------2---0---2--------2--0---2------------x--x------0--| 
|----0---0------0-----4---2---0------0------0---0----------x--x------4--| 
|--0-------0------0---0---0---0----0--------------0--------x--x------5--| 
|0-------------------------------0-------------------------x--x---5--5--| 

|--------------3--2--x--0-----------------2--0-----------x--2-| 
|--------------3--2--x--0-----------------------3--2--3--x--3-| 
|-------0------------x--x--------------------------------x--2-| 
|---4-----4----------x--x------0-------------------------x--x-| 
|-5---5-----5--------x--x------2----2--------------------x--x-| 
|--------------------x--x---2--2--2---2------------------x--x-| 

Verses: 

"93 million..." "cuz here it comes..." "over the horizon..." 
|---2------------------------------0-----------0-------------------| 
|---3------------------------------3-----------0-------------------| 
|---2------------------------------0-----------0-------------------| 
|---0------------------------------4-----------0-------------------| 
|---0------------------------------5-----------2-------------------| 
|---0------------------------------5-----------2-------------------| 


"Oh, my my..."       "She told me..."  "and if you..." "where you are..." 
|---2------------------------------0-----------0----------------0----------| 
|---3------------------------------3-----------0----------------2----------| 
|---2------------------------------0-----------0----------------2----------| 
|---0------------------------------4-----------0----------------2----------| 
|---0------------------------------5-----------2----------------0----------| 
|---0------------------------------5-----------2----------------2----------| 


"just know..."             "ever you go..." "come home..." 
|----3-----------------------------0----0-------2--------------------------| 
|----3-----------------------------0----2-------3--------------------------| 
|----0-----------------------------0----2-------2--------------------------| 
|----0-----------------------------0----2-------0--------------------------| 
|----5-----------------------------2----0-------0--------------------------| 
|----5-----------------------------2----2-------0--------------------------| 


"ohhhh..."                    "ohhhhh..."  "ohhhhh.." 
|----0-----------------------------0-----------2--------------------------| 
|----3-----------------------------0-----------3--------------------------| 
|----0-----------------------------0-----------2--------------------------| : x2 
|----4-----------------------------0-----------0--------------------------| 
|----5-----------------------------2-----------0--------------------------| 
|----5-----------------------------2-----------0--------------------------| 


"240 thousand..."    "To share this..." "over the horizon..." 
|---2------------------------------0-----------0-------------------| 
|---3------------------------------3-----------0-------------------| 
|---2------------------------------0-----------0-------------------| 
|---0------------------------------4-----------0-------------------| 
|---0------------------------------5-----------2-------------------| 
|---0------------------------------5-----------2-------------------| 


"Oh, my my..."        "he told me..." " but the absence..." "necessary part..." 
|---2------------------------------0-----------0----------------0----------| 
|---3------------------------------3-----------0----------------2----------| 
|---2------------------------------0-----------0----------------2----------| 
|---0------------------------------4-----------0----------------2----------| 
|---0------------------------------5-----------2----------------0----------| 
|---0------------------------------5-----------2----------------2----------| 


"just know..."           "never alone..." "back home..." 
|----3-----------------------------0----0-------2--------------------------| 
|----3-----------------------------0----2-------3--------------------------| 
|----0-----------------------------0----2-------2--------------------------| 
|----0-----------------------------0----2-------0--------------------------| 
|----5-----------------------------2----0-------0--------------------------| 
|----5-----------------------------2----2-------0--------------------------| 


"ohhhh..."             "ohhhhh..."   "always come.."           "back..." 
|----0-----------------------------0-----------0--------------2------3------| 
|----3-----------------------------0-----------2--------------0------3------| 
|----0-----------------------------0-----------2--------------4------0------| 
|----4-----------------------------0-----------2--------------0------0------| 
|----5-----------------------------2-----------0--------------2------5------|
|----5-----------------------------2-----------2--------------0------5------| 


"every road..." "there is..." "looking deeper..." "you can..." "the home..." "of you..." 
|---2--------------------3-------------2-----------------3-----------2------------------0---| 
|---2--------------------3-------------2-----------------3-----------2------------------2---| 
|---2--------------------0-------------2-----------------0-----------2------------------0---| 
|---4--------------------0-------------4-----------------0-----------4------------------2---| 
|---4--------------------5-------------4-----------------5-----------4------------------0---| 
|---4--------------------5-------------4-----------------5-----------4------------------2---| 


"just know..." "that wherever..." "never alone..." "will always..." "home..." 
|----3---------------0-----------------3----------------0----------------2---------|
|----3---------------0-----------------3----------------2----------------3---------|
|----0---------------0-----------------0----------------2----------------2---------|
|----0---------------0-----------------0----------------2----------------0---------|
|----5---------------2-----------------5----------------0----------------0---------|
|----5---------------2-----------------5----------------2----------------0---------| 


"ohhhh..."                   "ohhhhh..." ohhhhh.." 
|----0-----------------------------0-----------2--------------------------| 
|----3-----------------------------0-----------3--------------------------| 
|----0-----------------------------0-----------2--------------------------| : x2 
|----4-----------------------------0-----------0--------------------------| 
|----5-----------------------------2-----------0--------------------------| 
|----5-----------------------------2-----------0--------------------------| 


"93 million..." "cuz here it comes..." " over the horizon..." "our eyes..." 
|---2-----------------------0------------------0---------------------2----------| 
|---3-----------------------3------------------0---------------------3----------| 
|---2-----------------------0------------------0---------------------2----------| 
|---0-----------------------4------------------0---------------------0----------| 
|---0-----------------------5------------------2---------------------0----------| 
|---0-----------------------5------------------2---------------------0----------| 
Suggest correction
Give kudos to tab author, rate the tab!
1 2 3 4 5
comments
print report bad tab
guest
You may want to rate the tab now too:
select rating
Wanna post a correction for this tab? Suggest correction