Oops, an error
Loading. Please wait.

After An Afternoon Tab

version 2
version 2

Whole song

  • This is a complete version from the Live and Acoustic album.
13,441 views 9 this week
no commentswrite comment
1 2 3 4 5
x 5
add to favorites
launch autoscroll
font size
0
reset
how to read this tab
guitar tuner
Autoscroll
slow
fast
+/-
esc
set tempo
stop
Help us to improve Ultimate-Guitar.com Take our survey!
×
Author
Capo
2nd fret
Courtesy of Renny Roininen
*****************************
Capo on 2, all tab relative to capo
main verse part
e---------------------|
B---------------------|
G----0--0--------0----|
D---0-0--0---0--0-0---|
A--2---3--3-0-0----0--|
E----------2---3------|
before the change it moves to this, and here's the start of all the non-bass 
notes being a little off
e-------------------------------|
B-------------0----0----0-------|
G----0--0----0-0--0-0--0-0------|
D---0-0--0------0----0----0-----|
A--2---3--3-5----5----5----5----|
E-------------------------------|
here's the walkdown, same non-bass note warning as above
e--------------------------------------|
B-----0----0----0----0----0------0-----|
G----0-0--0-0--0-0--0-0--0-0----0-0----|
D-------0----0----0----0----0------0---|
A--10----9----7----5----3----3-3----3--|
E--------------------------------------|
then it changes to this
e-------------------------|
B-----0----0----0----0----|
G----0-0--0-0--0-0--0-0---|
D-------0----0----0----0--|
A---5----5----3----3------|
E-------------------------|
the last time through it does this
e-------------------------------------|
B-----0----0----0----0----0------0----|
G----0-0--0-0--0-0--0-0--0-0----0-0---|
D-------0----0----0----0----0------0--|
A---5----5----4----4----3----3-3------|
E-------------------------------------|
Suggest correction
comments
print report bad tab
guest
You may want to rate the tab now too:
select rating
Wanna post a correction for this tab? Suggest correction