Oops, an error
Loading. Please wait.

After An Afternoon Tab

version 3
version 3

Whole song

  • This is a complete version from the Live and Acoustic album.
64 views 6 this week
no commentswrite comment
1 2 3 4 5
3 more votes to show rating
add to favorites
launch autoscroll
font size
0
reset
how to read this tab
guitar tuner
Autoscroll
slow
fast
+/-
esc
set tempo
stop
Help us to improve Ultimate-Guitar.com Take our survey!
×
Author
Difficulty
Capo
intermediate
2nd fret
About this tab version
This is a complete version from the Live and Acoustic album. Was this info helpful? Yes No
Jason Mraz - After An Afternoon (Various live versions)

Tabbed by Alex Hall

Capo on 2, tab relative to capo

[Intro]

e|------------------------|----------------------|---------------------|------------|
B|--------0---------0-----|-----0---------0------|-----1---------1-----|-----1------|
G|------0---0-----0---0---|---0---0-----0---0----|---0---0-----0---0---|---0---0----|
D|--5-5-------5-4-------4-|-2-------2-0----------|---------------------|------------|
A|------------------------|--------------------0-|-3-------3-3-------3-|-3-------3--|
E|------------------------|----------------------|---------------------|------------|

e|------------|
B|--1--3--10--|
G|--0--0--0---|
D|------------|
A|--3--5--12--|
E|------------|

e|------------------------|----------------------|---------------------|------------|
B|--------0---------0-----|-----0---------0------|-----1---------1-----|-----1------|
G|------0---0-----0---0---|---0---0-----0---0----|---0---0-----0---0---|---0---0----|
D|--5-5-------5-4-------4-|-2-------2-0----------|---------------------|------------|
A|------------------------|--------------------0-|-3-------3-3-------3-|-3-------3--|
E|------------------------|----------------------|---------------------|------------|

e|-------|
B|----1--|
G|----0--|
D|-------|
A|--3----|
E|-------|


[Verse]

e|----------------------|----------------------|
B|----------------------|----------------------|
G|------0-----0-------0-|-----0-----0-------0--|
D|----0-----0---0---0---|---0-----0---0---0----|
A|--2-----3-------3-----|----------------------|
E|----------------------|-2-----3-------3------|

[Pre-Chorus]

e|-----------------------|----------------------------------|
B|-----------------------|----------------------------------|
G|------0------0-------0-|-----0---------0---------0--------|
D|----0------0---0---0---|---0---0-----0---0-----0---0------|
A|--2------3-------3-----|-5-------5-5-------5-5-------5-5--|
E|-----------------------|----------------------------------|

   Until all...     is looooossssstttt.......

[Chorus]

e|------------------------|----------------------|---------------------|------------|
B|--------0---------0-----|-----0---------0------|-----1---------1-----|-----1------|
G|------0---0-----0---0---|---0---0-----0---0----|---0---0-----0---0---|---0---0----|
D|--5-5-------5-4-------4-|-2-------2-0----------|---------------------|------------|
A|------------------------|--------------------0-|-3-------3-3-------3-|-3-------3--|
E|------------------------|----------------------|---------------------|------------|

    ...something in the way...

e|-------------|
B|------1------|
G|----0---0----|
D|-------------|
A|--3-------3--|
E|-------------|

e|------------------------|----------------------|---------------------|------------|
B|--------0---------0-----|-----0---------0------|-----1---------1-----|-----1------|
G|------0---0-----0---0---|---0---0-----0---0----|---0---0-----0---0---|---0---0----|
D|--5-5-------5-4-------4-|-2-------2-0----------|---------------------|------------|
A|------------------------|--------------------0-|-3-------3-3-------3-|-3-------3--|
E|------------------------|----------------------|---------------------|------------|

e|-------------|
B|------1------|
G|----0---0----|
D|-------------|
A|--3-------3--|
E|-------------|

e|-------------------------------------------|
B|------3---------3---------3---------3------|
G|----0---0-----0---0-----0---0-----0---0----|
D|-------------------------------------------|
A|--5-------5-5-------5-3-------3-3-------3--|
E|-------------------------------------------| x 4 (or 6)

   After and afternoon...

e|----------------------|---------------------|---------------------|-----------------|
B|------3---------3-----|-----2---------2-----|-----1---------1-----|------1-------1--|
G|----0---0-----0---0---|---0---0-----0---0---|---0---0-----0---0---|----0---0-----0--|
D|----------------------|---------------------|---------------------|-----------------|
A|--5-------5-5-------5-|-4-------4-4-------4-|-3-------3-3-------3-|-3--------3-3----|
E|----------------------|---------------------|---------------------|-----------------|

  Afternooooooooooooooo...

Back to the verse

[End on:]

e|----------------------------|
B|----------------------------|
G|------0-----0-------0----0--|
D|----0-----0---0---0------0--|
A|--2-----3-------3-----------|
E|----------------------2--3--|


Lyrics
-------------------------------

I bare my windowed self untamed and untrained
Dreams that hardly touch our complexions truest faults
If room enough for both my drowsy spirit shall fall
Bold waves tumble oh to the season of my heart
And you have offended my faith and my trust
Until all is lost into the beauty of the day
Until all is lost

Until all is looooossst

But there's something in the way you laugh
And it makes me feel like a child
Aspects of life they confuse me
You and your thesis amuse me
Oh, after and afternoon with you
And your rich brown eyes
Your lips and dark hair
Elbows and exposed knees tossing toward the ceiling
After an after, after an after, after an afternoon
After an after, after an afternoon with you

Face to palm
Tear to tear
Mouth to tongue
Heart to ground
Heart to ground
Heart to ground

I am in love
Suggest correction
Give kudos to tab author, rate the tab!
1 2 3 4 5
comments
print report bad tab
guest
You may want to rate the tab now too:
select rating
Wanna post a correction for this tab? Suggest correction