Oops, an error
Loading. Please wait.

Bella Luna Tab

version 1
version 1

Acoustic

Whole song

  • Based off the live version recording in Venice, It... Show more

Interactive

8,375 views 18 this week
no commentswrite comment
1 2 3 4 5
x 3
add to favorites
launch autoscroll
font size
0
reset
how to read this tab
guitar tuner
Autoscroll
slow
fast
+/-
esc
set tempo
stop
Help us to improve Ultimate-Guitar.com Take our survey!
×
Author
Difficulty
intermediate
  Tabbed by Stephenjusto24                     Stephenjusto24@yahoo.com




  Intro:

e|------------------------------------------------------------------------|
B|-1p0--------1----1--1-----1p0-------3---3---3---3---------3---3---3---3-|
G|----2p0-----2----2--2--------2p0----2---2---2---2---------2---2---2---2-|
D|------------2----2--2---------------3---3---3---3---------3---3---3---3-|
A|--------0------0-----------------2----2---2---2---------2---2---2---2---| 
E|------------------------------------------------------------------------| 

e|------------0--------------|
B|----1---1---1--------------|
G|----2---2---2--------------| 
D|----2---2---2--------------|
A|--0---0-----0--------------| 
E|---------------------------| 




  Verse: 

e|------------------------------------------------------------|
B|------------------------------------------------------------|
G|----------------------7---7---7---7------7---7---7---7------| 
D|-----7---7---7---7----7---7---7---7------7---7---7---7------|
A|-----7---7---7---7------------------------------------------| 
E|---5---5---5---5----7---7---7---7-----7----7---7---7--------| 

e|-----------------------------------------------------------------------|
B|-------------------------6---6---6---6---------------------------------|
G|-------------------------7---7---7---7---------------------------------|
D|------7---7---7---7------7---7---7---7-----7---7---7---7---------------|
A|------7---7---7---7----5---5---5---5-------7---7---7---7---------------| 
E|----5---5---5---5------------------------5---5---5---5-----------------|  

e|-----------------------------------------------------------------------|
B|------------------------9---9--9---------------------------------------|
G|------7---7---7---7-----9---9--9---------------------------------------|
D|------7---7---7---7-----9---9--9---------------------------------------| 
A|----------------------7---7--------------------------------------------| 
E|---7---7---7---7-------------------------------------------------------|  

  Then you do this guitar solo thing 2x: 

e|------------------------------------------------------------------------|
B|------------------------------------------10---10---9-------------------|
G|----------------------------7---7--7------10---10---9-------------------|
D|--------------------7---7---7---7--7------10---10---9-------------------|
A|--5--7--5-----------7---7-------------5/8----8----7---------------------| 
E|-----------8--7--5----5---7--7------------------------------------------| 

then you repeat the verse 1x 

Chorus 1x:

e|-----------------------------------------------------------------------|
B|-----6---6--------------5---5-------------6---6---6---6---9---9--9-----|
G|-----7---7--------------5---5-------------7---7---7---7---9---9--9-----|
D|-----7---7----5---5-----5---5---3---3-----7---7---7---7---9---9--9-----|
A|---5---5------5---5---3---3-----3---3---5---5---5---5---7---7----------| 
E|-----------3---3--------------1---1------------------------------------| 

Then you repeat the guitarsolo 2x 

Then you do the verse 1x 

Then you do the chorus like this:

e|---------------------------------------------------------------------|
B|---------------6---6-------------5---5-------------6---6-------------|
G|---------------7---7-------------5---5-------------7---7-------------|
D|-----7---7-----7---7----5---5----5---5---3---3-----7---7-------------|
A|-----7---7---5---5------5---5--3---3-----3---3---5---5---------------| 
E|---5---5--------------3---3------------1---1-------------------------|  

e|----------------------------------------------------------------------|
B|----9---9--9-----------------------------6---6-------------5---5------|
G|----9---9--9-----------------------------7---7-------------5---5------|
D|----9---9--9-------------------7---7-----7---7---5---5-----5---5------|
A|--7---7-------5--7--5----------7---7---5---5-----5---5---3---3--------| 
E|-----------------------8--7--5---5-------------3---3------------------| 

e|--------------------------------------------------|
B|-------------6---6----9---9--9--------------------|
G|-------------7---7----9---9--9--------------------|
D|---3---3-----7---7----9---9--9--------------------|
A|---3---3---5---5----7---7-------5--7--5-----------|  
E|-1---1-----------------------------------8--7--5--| 

Then you do the verse 1x 

 then you do the chorus: 

e|-----------------------------------------------------------------------|
B|-----6---6--------------5---5-------------6---6---6---6---9---9--9-----|
G|-----7---7--------------5---5-------------7---7---7---7---9---9--9-----|
D|-----7---7----5---5-----5---5---3---3-----7---7---7---7---9---9--9-----|
A|---5---5------5---5---3---3-----3---3---5---5---5---5---7---7----------| 
E|-----------3---3--------------1---1------------------------------------| 

e|---------------------------|
B|---------------------------|
G|---------------------------|
D|---------------------------|
A|-5--7--5-------------------| 
E|----------8--7-------------|

e|---------------------------------------------------------------------|
B|---------------6---6-------------5---5-------------6---6---9---9--9--|
G|---------------7---7-------------5---5-------------7---7---9---9--9--|
D|-----7---7-----7---7----5---5----5---5---3---3-----7---7---9---9--9--|
A|-----7---7---5---5------5---5--3---3-----3---3---5---5---7---7-------| 
E|---5---5--------------3---3------------1---1-------------------------|  

Then you do the guitarsolo 2x 

Then you end with this: 

e|---------------------------|
B|---------------------------|
G|---------------------------|
D|---------------------------|
A|-5--7--5-------------------| 
E|----------8--7--5----------|
Suggest correction
Give kudos to tab author, rate the tab!
1 2 3 4 5
comments
print report bad tab
guest
You may want to rate the tab now too:
select rating
Wanna post a correction for this tab? Suggest correction