Oops, an error
Loading. Please wait.

Boys Gone Tab

version 1
version 1

Intro

Whole song

4,849 views 3 this week
1 commentread comment
1 2 3 4 5
worth learning
x 4
add to favorites
launch autoscroll
font size
0
reset
how to read this tab
guitar tuner
Tab Pro tools
  • play this tab
  • loop segment
  • change instrument
  • show fretboard
  • metronome
Autoscroll
slow
fast
+/-
esc
set tempo
stop
I havn't seen a tab for this anywhere and was really annoyed! This is a great song,
I hope you think the tab is correct. If not, PLEASE RATE!

Standard Tuning. 

e|--------------------------------------------------------------------|
b|--------------------------------------------------------------------|
g|-------4-----4---------4------4--------4-----4-----------6-----5----|
d|-------2-----2---------4------4--------4-----4-----------6-----5----|
a|---4-----4--------2-2-----2-2---------------------------------------|
e|------------------------------------0-----0------0----4-------------|


ENJOY! Please e-mail me at retro_lookin101@hotmail.com

Tabbed by Matt Tilling
comments
print report bad tab
1 comment total.
+2 reply
ChrisT wrote on September 27 2005, 06:10 pm

The last two parts were I little off I thought. Here's what I could come up with.

e|--------------------------------------------------------------------|
b|--------------------------------------------------------------------|
g|-------4-----4---------4------4--------1-----1-----------6-----5----|
d|-------2-----2---------4------4--------1-----1-----------6-----6----|
a|---4-----4--------2-2-----2-2---------------------------------------|
e|------------------------------------0-----0------0----4-------------|


Also after that it goes something like this:

e|--------------------------------------------------------------------|
b|--------------------------------------------------------------------|
g|------6---6---5--5------4---4---3--3------2---2----------6--5-------|
d|------6---6---6--6------4---4---4--4------2---2----------6--6-------|
a|---4---4-------------2----2-------------0---0-----------------------|
e|------------------------------------------------------4-------------|

Don't follow that exactly, but I think that's a good basic start. You just use those two segments for most of the song, up until the bridge (this is something else) at 2:15 into the song. Then after the bridge goes back to those two parts.

I want to post or [tab]
guest
You may want to rate the tab now too:
select rating
Please do not post tabs as comments. Select "correction" instead!