Oops, an error
Loading. Please wait.

Boys Gone Tab

version 2
version 2

Intro

Whole song

12,067 views 1 this week
2 commentsread comments
1 2 3 4 5
1 last vote to show rating
add to favorites
launch autoscroll
font size
0
reset
how to read this tab
guitar tuner
Autoscroll
slow
fast
+/-
esc
set tempo
stop
Help us to improve Ultimate-Guitar.com Take our survey!
×
Author
Tabbed by: omidahomi712
Email: oyl712@aol.com

Tuning: Standard

e|---------------------------------------------------------------------------|
B|---------------------------------------------------------------------------|
G|-----4------4------------4-----------4-----------4--------1----------------|
D|-----2------2------------4-----------4-----------6--------4----------------|
A|-4-------4-----4------2-------2---2-----2--------6--------2----6-----------|
E|---------------------------------------------0------0--------0-------------|

e|---------------------------------------------------------------------------|
B|---------------------------------------------------------------------------|
G|-----6-----------5---------------------------------------------------------|
D|-----4-----------6---------------------------------------------------------|
A|--------------------6------------------------------------------------------|
E|-4--------4----------------------------------------------------------------|

He plays this a couple of times as a verse nd thats all i got...feedback?
Suggest correction
Give kudos to tab author, rate the tab!
1 2 3 4 5
comments
print report bad tab
2 comments total.
0 reply
Hadhafang 51 Aug 01, 2008 03:57 PM

Sounds accurate to me, nice job

0 reply
Aurimus 10 Mar 15, 2010 11:19 AM

For me it sounds like there should be three hits on A string. What do you think?


e|-----------------------------
B|-----------------------------
G|-----4------4------------4---
D|-----2------2------------4---
A|-4-------4-----4---2---2-----
E|-----------------------------

guest
You may want to rate the tab now too:
select rating
Wanna post a correction for this tab? Suggest correction