Oops, an error
Loading. Please wait.

Boys Gone Tab

version 1
version 1

Whole song

5,063 views 6 this week
1 commentread comment
1 2 3 4 5
excellent!
x 5
add to favorites
launch autoscroll
font size
0
reset
how to read this tab
guitar tuner
Tab Pro tools
  • play this tab
  • loop segment
  • change instrument
  • show fretboard
  • metronome
×
Best way to learn
"Boys Gone"
Autoscroll
slow
fast
+/-
esc
set tempo
stop
Contributor
0===========================0
|Jason mraz - The Boy's Gone|
0===========================0

   Intro
E |------------------------------------------------------------|
B |------------------------------------------------------------|
G |----4-----4--------4------4-----5---1-------6-----5---------|
D |----2-----2--2-----4------4-----6---2-----------------------|
A |--4-----4---4----2----2-2---2---6---2-------6-----6----6----|
E |------------------------------0-----0---2/4-----4----4------|
  
E |------------------------------------------------------------|
B |------------------------------------------------------------|
G |----4-----4--------4------4-----5---1-------6-----6-----5---|
D |----2-----2--2-----4------4-----6---2-----------------------|
A |--4-----4---4----2----2-2---2---6---2-------6-----6-----6---|
E |------------------------------0-----0---2/4-----4-------4---|



   Chorus
E |-----------------------------------------------------------|
B |-----------------------------------------------------------|
G |----4-----4--------4------4-----5---1-------6-----5--------|
D |----2-----2--2-----4------4-----6---2----------------------|
A |--4-----4---4----2----2-2---2---6---2-------6-----6---6----|
E |------------------------------0-----0---2/4-----4----4-----|
   The boy's gone, the boy's gone home

E |--------------------------------------------9--------------|
B |--------------------------------------9-----9--------------|
G |----4-----4-------4------4----------9-------9--------------|
D |----2-----2--2----4------4-------11---------11-------------|
A |--4-----4---4---2----2-2-------11-----------11------11\4---|
E |-----------------------------------------------------------|
   The boy's gone, the boy's gone home



   Verse
E |-----------------------------------------------------------|
B |-----------------------------------------------------------|
G |----4-----4--------4------4-----5----5--------6-----5------|
D |----2-----2--2-----4------4-----6----6---------------------|
A |--4-----4---4----2----2-2---2---6----6--6-----6-----6---6--|
E |------------------------------0----0---0----4-----4----4---|
   What will happen to a face in the crowd when it finally gets too crowded.

E |-----------------------------------------------------------------------|
B |-----------------------------------------------------------------------|
G |----4-----4--------4------4-----5----5---------6----6--------5---5-----|
D |----2-----2--2-----4------4-----6----6---------------------------------|
A |--4-----4---4----2----2-2---2---6----6--6------6----6--6-----6---6--5--|
E |------------------------------0----0---0-----4----4---4----4----4--4---|
   What will happen to the origins of sound after all the sounds have sounded

E |---------------------------------------------------------------------------------------|
B |---------------------------------------------------------------------------------------|
G |----6-----6--------5----5--------4-----4-----------------------------------6-----5-----|
D |----6-----6--6-----6----6--6-----4-----4--4-----4------4----7-----7--------------------|
A |--4-----4---4----3----3---3----2-----2---2------4------4----7-----7--7-----6-----6--6--|
E |----------------------------------------------2----2-2----5-----5---5----4-----4---4---|
   Well I hope I never have to see that day, but by God I know it's headed our way, 
   So I better be happy now that the boy's going home.



   Chorus 
E |------------------------------------------------------------------------|
B |------------------------------------------------------------------------|
G |----4-----4-------4------4-----5---1---------6----6---------5---5-------|
D |----2-----2--2----4------4-----6---2------------------------------------|
A |--4-----4---4---2----2-2---2---6---2---------6----6---6-----6---6----5--|
E |-----------------------------0-----0--2/4--4----4----4----4----4----4---|
   The boy's gone home.



   Verse
E |----------------------------------------------------------|
B |----------------------------------------------------------|
G |----4-----4-------4------4-----5----5---------6----5------|
D |----2-----2--2----4------4-----6----6---------------------|
A |--4-----4---4---2----2-2---2---6----6--6------6----6---6--|
E |-----------------------------0----0---0-----4----4----4---|
   What becomes of a day for those who rage against it

E |-----------------------------------------------------------------------|
B |-----------------------------------------------------------------------|
G |----4-----4--------4------4-----5----5---------6----6--------5---5-----|
D |----2-----2--2-----4------4-----6----6---------------------------------|
A |--4-----4---4----2----2-2---2---6----6--6------6----6--6-----6---6--5--|
E |------------------------------0----0---0-----4----4---4----4----4--4---|
   And who will sum op the phrase for all left standing around in it

E |---------------------------------------------------------------------------------------|
B |---------------------------------------------------------------------------------------|
G |----6-----6--------5----5--------4-----4-----------------------------------6-----5-----|
D |----6-----6--6-----6----6--6-----4-----4--4-----4------4----7-----7--------------------|
A |--4-----4---4----3----3---3----2-----2---2------4------4----7-----7--7-----6-----6--6--|
E |----------------------------------------------2----2-2----5-----5---5----4-----4---4---|
   Well I suppose we'll all make our judgement call, We'll march to the fall
   So we better be happy now that we'll all go home.

E |----------------------------------------------------------------------|
B |----------------------------------------------------------------------|
G |----4-----4-------4------4-----5----5--------6----6--------5---5------|
D |----2-----2--2----4------4-----6----6---------------------------------|
A |--4-----4---4---2----2-2---2---6----6--6-----6----6--6-----6---6--5---|
E |-----------------------------0----0---0----4----4---4----4----4--4----|
   we'll all go home

E |---------------------4------|
B |----------------------------|
G |----6----6---------5-----5--|
D |------------------4---------|
A |----6----6---6---6-----6----|
E |--4----4----4---4-----------|

E |------------------------------------------------------------|
B |------------------------------------------------------------|
G |----6-----6--------5----5--------4-----4--------------------|
D |----6-----6--6-----6----6--6-----4-----4--4-----4------4----|
A |--4-----4---4----3----3---3----2-----2---2------4------4----|
E |----------------------------------------------2----2-2------|
   Be so happy with the way you are, Be so happy that you made it this far

E |------------------------------------------------------------|
B |------------------------------------------------------------|
G |-----------------------------------5-----5------5-5-5-5-5---|
D |----7-----7---------7-----7---------------------4-4-4-4-4---|
A |----7-----7--7------7-----7--7-----6-----6--6---6-6-6-6-6---|
E |--5-----5---5-----5-----5---5----4-----4---4----4-4-4-4-4---|
   Go on be happy now. please be happy now



   Bridge
E |-----|-----|-----|-----|
B |-----|--5--|-----|-----|
G |--6--|--7--|--6--|-6-5-| 4X       (These are a few chords you have to play)
D |--6--|--6--|--7--|-5---|
A |--4--|--7--|--7--|-6-6-|
E |-----|-----|--5--|-4-4-|
   Because you say that this, this is something else (alright)
   I say that this, this is something else (well alright)
   Oo thi-thi-thi-thi-this is all, thi-thi-thi-thi-this is yeah,
   thi-thi thi-thi-thi-this is all something else
   thi-thi-thi-thi-this is all, thi-thi-thi-thi-this is yeah,
   thi-thi thi-thi-thi-this is all something else

E |-----------------------------|
B |-----------------------------|
G |----6----6--------5----5-----|    (Play this the last time)
D |-----------------------------|
A |----6----6--6-----6----6--6--|
E |--4----4---4----4----4---4---|



   Verse
E |---------------------------------------------------------------------------------------|
B |---------------------------------------------------------------------------------------|
G |----6-----6--------5----5--------4-----4-----------------------------------6-----5-----|
D |----6-----6--6-----6----6--6-----4-----4--4-----4------4----7-----7--------------------|
A |--4-----4---4----3----3---3----2-----2---2------4------4----7-----7--7-----6-----6--6--|
E |----------------------------------------------2----2-2----5-----5---5----4-----4---4---|
   I tried to live my life and live it so well, But when it's all over is it heaven or is it hell
   I better be happy now that no one can tell, nobody knows 

E |----------------------------------------------------------|
B |----------------------------------------------------------|
G |----4-----4-------4------4-----5----5---------6----5------|
D |----2-----2--2----4------4-----6----6---------------------|
A |--4-----4---4---2----2-2---2---6----6--6------6----6---6--|
E |-----------------------------0----0---0-----4----4----4---|
   no one can tell now, because nobody knows

E |---------------------------------------------------------------------------------------|
B |---------------------------------------------------------------------------------------|
G |----6-----6--------5----5--------4-----4-----------------------------------6-----5-----|
D |----6-----6--6-----6----6--6-----4-----4--4-----4------4----7-----7--------------------|
A |--4-----4---4----3----3---3----2-----2---2------4------4----7-----7--7-----6-----6--6--|
E |----------------------------------------------2----2-2----5-----5---5----4-----4---4---|
   I'm gonna be happy with the way that I am, I'm gonna be happy with all that I stand for
   I'm gonna be happy now because the boy's going home

E |-----------------------------------------------------------------------|
B |-----------------------------------------------------------------------|
G |----4-----4--------4------4-----5---1-------6-----6--------5-----5-----|
D |----2-----2--2-----4------4-----6---2----------------------------------|
A |--4-----4---4----2----2-2---2---6---2-------6-----6--6-----6-----6--6--|
E |------------------------------0-----0---2/4-----4---4----4-----4---4---|
   The boy's going home



   Chorus
E |----------------------------------------------------------|
B |----------------------------------------------------------|
G |----4-----4--------4------4-----5---1-------6-----5-------|
D |----2-----2--2-----4------4-----6---2---------------------|
A |--4-----4---4----2----2-2---2---6---2-------6-----6--6----|
E |------------------------------0-----0---2/4-----4---4-----|
   The boy's gone home

E |----------------------------------------------------------|
B |----------------------------------------------------------|
G |----4-----4-------4------4-----5----5---------6----5------|
D |----2-----2--2----4------4-----6----6---------------------|
A |--4-----4---4---2----2-2---2---6----6--6------6----6---6--|
E |-----------------------------0----0---0-----4----4----4---|
   The boy's gone home

E |----------------------------------------------------------|
B |----------------------------------------------------------|
G |----4-----4-------4------4-----5----5---------6----5------|
D |----2-----2--2----4------4-----6----6---------------------|
A |--4-----4---4---2----2-2---2---6----6--6------6----6---6--|
E |-----------------------------0----0---0-----4----4----4---|
   The boy's gone home

E |----------------------------------------------------------|
B |----------------------------------------------------------|
G |----4------------4---------------------------5------------|
D |----2------------4---------------------------6------------|
A |--4--------------2---------------------------6------------|
E |---------------------------------------------0------------|
   The boy's gone





Something like that...                                                                 Mr.Klever
comments
print report bad tab
1 comment total.
0 reply
joshblake1010 wrote on August 13 2013, 12:37 pm

very good tab!!

I want to post or [tab]
guest
You may want to rate the tab now too:
select rating
Please do not post tabs as comments. Select "correction" instead!