Oops, an error
Loading. Please wait.

Boys Gone Chords

version 2
version 2

Whole song

27,935 views 21 this week
no commentswrite comment
1 2 3 4 5
excellent!
x 9
add to favorites
launch autoscroll
font size
0
reset
transpose
0
reset
simplify chords
- display chords -
guitar tuner
Tab Pro tools
  • play this tab
  • loop segment
  • change instrument
  • show fretboard
  • metronome
Autoscroll
slow
fast
+/-
esc
set tempo
stop
Contributor
    _________________________________
   / Jason Mraz                     /
  / The Boy's Gone                 /
 / Waiting for My Rocket to Come  /
/________________________________/

 Chords:
    C#m7  B  Emaj7  G#7sus4  G#     C#m  G#/C  B    F#   A   E7
e:------------------------------- -------------------------------:
B:------------------------------- ---5----4----4----2--------5---:
G:---4----4----4-------6-----5--- ---6----5----4----3----6---7---:
D:---6----4----6-------4-----6--- ---6----6----4----4----7---6---:
A:---4----2----6-------6-----6--- ---4----3----2----4----7---7---:
E:-------------0-------4-----4--- ------------------2----5-------:

 Main picking pattern:
  C#m7              B                 Emaj7             G#7sus4 G#
|-----------------|-----------------|-----------------|-----------------|
|-----------------|-----------------|-----------------|-----------------|
|-----4-----4-----|-----4-------4---|-----4-----------|-----6-----5-----|
|-----2-----2-----|-----4-------4---|-----------6-----|-----4-----6-----|
|-4-----4-----4---|-2-----2-2-----2-|-----6-----6-----|-----------------|
|-----------------|-----------------|-0-----0-----0---|/4-------4-------|



 Intro:
||: C#m7 | B | Emaj7 | G#7sus4 G# :|| 3x

| C#m7 | B | Emaj7 | Emaj7 |



 Verse:
| C#m7 | B | Emaj7 | G#7sus4 G# |

| C#m7 | B | Emaj7 | G#7sus4 | G# |



 Chorus:
| C#m | G#/C | B | F# |

| A | G#7sus4 G# |

| C#m7 | B | Emaj7 | G#7sus4 | G# |


 Verse


 Chorus:
| C#m | G#/C | B | F# |

| A | G#7sus4 G# |

| C#m7 | B | Emaj7 | G#7sus4 G# |

| C#m | G#/C | B | F# |

| A | A | G#7sus4 | G# |



 Bridge:
||: C#m | E7 | A | G#7sus4 G# :|| 3x

 | C#m | E7 | A | G#7sus4 | G# |


 Chorus:
||: C#m | G#/C | B | F# |

| A | G#7sus4 G# |

| C#m7 | B | Emaj7 | G#7sus4 G# :||


 Outro:
||: C#m7 | B | Emaj7 | G#7sus4 G# :|| 3x (start fading after third round)



------------------------------------------------------------------------------
 10th /May /09
 Just mail me at Maitinin@gmail.com with questions, comments and corrections!
------------------------------------------------------------------------------



 " Maitinin writing here - the author of this tab.

   The past 11 years, I have generated 10,318,000 views and 815 top-rated tabs for this site.
   If you want to support an eager contributor like me, check out my own site:


   _____  http://www.PlayLikeTheGreats.com  _____


   Here I will continue to upload and improve my transcriptions.

   Best regards,
   Maitinin

   July, 2015 "
comments
print report bad tab
I want to post or [tab]
guest
You may want to rate the tab now too:
select rating
Please do not post tabs as comments. Select "correction" instead!