Oops, an error
Loading. Please wait.

Coyotes Tab

4,492 views 3 this week
1 commentread comment
1 2 3 4 5
1 last vote to show rating
add to favorites
launch autoscroll
font size
0
reset
how to read this tab
guitar tuner
Autoscroll
slow
fast
+/-
esc
set tempo
stop
Help us to improve Ultimate-Guitar.com Take our survey!
×
Author
Difficulty
-------------------------------------------------------------------------------
           Coyotes (Beautiful Mess Live on Earth) INTRO - Jason Mraz
-------------------------------------------------------------------------------
Tabbed by: BeautifulMessss
Email: x20oblivion09x@aol.com

Tuning: Standard

e|---------------------------------------------------------------------------|
B|-----3/4-4-3-1-3-----------------------------------------------------------|
G|------------------3p0-0-3-1----1-0-----------------------------------------|
D|------------------------------------3-1-1h3p1p0----------------------------|
A|---------------------------------------------------------------------------|
E|---------------------------------------------------------------------------|

e|---------------------------------------------------------------------------|
B|-----3/4-4-3-1-3-----------------------------------------------------------|
G|------------------3p0-0-3-1----1-0-----------------------------------------|
D|------------------------------------3-1-1h3p1p0----------------------------|
A|---------------------------------------------------------------------------|
E|---------------------------------------------------------------------------|

That's what I think it is, it sounds right to me. RATE. COMMENT. :)

************************************

| /   slide up

************************************
Suggest correction
Give kudos to tab author, rate the tab!
1 2 3 4 5
comments
print report bad tab
1 comment total.
0 reply
BeautifulMessss 16 Apr 28, 2010 04:04 PM

e|---------------------------------------------------------------------------|
B|-----3/4-4-3-1-3-----------------------------------------------------------|
G|------------------3p0-0-3-1----1-0-----------------------------------------|
D|------------------------------------3-1-1h3p0------------------------------|
A|---------------------------------------------------------------------------|
E|---------------------------------------------------------------------------|

^^ that's how it should be :)

guest
You may want to rate the tab now too:
select rating
Wanna post a correction for this tab? Suggest correction