Oops, an error
Loading. Please wait.

Curbside Prophet Tab

version 1
version 1

Whole song

Interactive

92,345 views 27 this week
11 commentsread comments
1 2 3 4 5
x 26
add to favorites
launch autoscroll
font size
0
reset
how to read this tab
guitar tuner
Autoscroll
slow
fast
+/-
esc
set tempo
stop
[Whole Song]
e|-----------------------------------------------|
B|--------------8\-------1-----------------------|
G|-----4--------7\-------2---------0-------0-----|
D|-----5--------7\-------2-------0-------0-------|
A|-----------------------------5-------3---------|
E|--3-3--x--8-8---x--1-1--x--6-------5-----------|

[Banjo Fill]
e|-------------------|
B|--8-6--------------|
G|------5-5h7p5------|
D|--------------8-5--|
A|-------------------|
E|-------------------|


************************************

| \  Slide down
| x  Dead note
| h  Hammer-on
| p  Pull-off

************************************
Suggest correction
comments
print report bad tab
11 comments total. Showing first comments.
0 reply
MaddinB 10 Mar 28, 2004 07:00 PM

Good tab but the end ist wrong
try this:
e-----------------
B-----------------
G-----0-----0-----
D---0-----0-------
A-1-----0---------
E-----------------

Try to play with your fingers it sounds much better

+2 reply
ZackEpiphone 10 Apr 22, 2006 12:31 PM

Awesome Tab man.. you got a good ear for music ;)

0 reply
musicluver10 83 May 26, 2006 05:23 PM

this is a great tab.... i gave it a 5. but i agree with MaddinB: the ending is a little off. the one MaddinB gave u is rite i think.

But great tab other than tht little thing! keep it up.

guest
You may want to rate the tab now too:
select rating
Wanna post a correction for this tab? Suggest correction