Oops, an error
Loading. Please wait.

Dear Anna Tab

2,987 views 1 this week
no commentswrite comment
1 2 3 4 5
please rate
add to favorites
launch autoscroll
font size
0
reset
how to read this tab
guitar tuner
Autoscroll
slow
fast
+/-
esc
set tempo
stop
Help us to improve Ultimate-Guitar.com Take our survey!
×
Author
                                Dear Anna
                         Jason Mraz (Carlos Olmeda)
This is my first tab, hope I did okay
http://www.youtube.com/watch?v=cUP-Lv8td1I

Chord Chart:
Emin   022000
Emin7  x2100x
G      320033
D7     x42000
C      x32010 or x35553
B7     024242
Em7(2) x6403x or x6777x
All CHORUS chords are normal, barred chords, so use the above chord chart for all chords 
except the chorus ones.

Intro/Verse:
e|------------------------------------0--------------------2~~~~~(7)|
B|------------------------------------3------5---------4-5----------|
G|----0-------0-------0-------0-------0--------5-----2--2-2---------|
D|----2-2-1-----1-0-----0---2---2---2--------------4----------------|
A|--2-------2-------2-----4-------3--------3-----2------------------|
E|0---------------3-------------------------------------------------|
Note that the penultimate C chord ^ can be barred if you wish.

e|-----------------------------------------------------------0------|
B|------------------------------------3------1-----------2----------|
G|----0-------0-------0-------0-------0--------0-------4---4---4~~~-|
D|----2-2-1-----1-0-----0---2---2---2----------------5--------------|
A|--2-------2-------2-----4-------3--------3-------5----------------|
E|0---------------3------------------------------2------------------|

CHORUS:

	B       G#min       Ebmin       E       F#       x 2

	Emin       F#       Emin       C       B7

BRIDGE (listen to song for timings):

	Amin       B7       D       D7       C       B7

	C       D       Em7(2)

VERSE Chords (for strumming in final verse):

	Emin       Emin7       G       D7       C       B7

	Emin       Emin7       G       D7       F#maj


                                  Lyrics
Did the roses never open?
Are you left to start again?
And not a single tear should fall into the water,
That you kept them in.

Dear Anna
I am the only one,
Who will love you until the end,
Ayy Anna,
Open your heart again,
And warm me by the fire within.

How are you going to face the autumn;
with the pain you only friend?
Just remember that; Before you know the winter,
You'll know love again

Dear Anna
I am the only one,
Who will love you until the end,
Ayy Anna,
Open your heart again,
And warm me by the fire within.

I stand forewarned,
Love will change,
Even the best of friends.

Aint nothing wrong with starting over,
Go on and have yourself a cry,
I just wanna be the man with arms around you,
When you dry your eyes

Dear Anna
I am the only one,
Who will love you until the end,
Ayy Anna,
Open your heart again,
And warm me by the fire within
Suggest correction
Give kudos to tab author, rate the tab!
1 2 3 4 5
comments
print report bad tab
guest
You may want to rate the tab now too:
select rating
Please do not post tabs as comments. Select "correction" instead!