Oops, an error
Loading. Please wait.

Halfway Home Tab

version 2
version 2

Acoustic

Whole song

3,560 views 3 this week
no commentswrite comment
1 2 3 4 5
please rate
add to favorites
launch autoscroll
font size
0
reset
how to read this tab
guitar tuner
Autoscroll
slow
fast
+/-
esc
set tempo
stop
Help us to improve Ultimate-Guitar.com Take our survey!
×
Author
To see the video of Jason Mraz playing halfway home go to: 
http://www.youtube.com/watch?v=lAB5LkQyZJk

there is a part at the end that I couldnt get so if you can email me at mendoza_josue007@yahoo.com

e------------------------------------------------------|
B-------------------------1-0------------------------0-|
G--------0-----2-----0-------2-0-------0-----2-----0-0-|
D------0--0--1--1--4--4---------2-0--0--0--1--1--4---4-|
A-------2--0--2--2--2--2-3------------2--0--2--2--2----|
E-0-2-3-----2-----0-----------------3-----2-----0------|


e-----------------------------------|
B-------------------------1-0-------|
G--------0-----2-----0-------2-0----|
D------0--0--1--1--4--4---------2-0-|
A-------2--0--2--2--2--2-3----------|
E-0-2-3-----2-----0-----------------|


e----------------------------------------------------------|
B------------------------------------------------1-0-------|
G----0-----2-----0--------------0-----2-----0-------2-0----|
D--0--0--1--1--4--4--4-4------0--0--1--1--4--4---------2-0-|
A---2--0--2--2--2--2--2--------2--0--2--2--2--2-3----------|
E-3-----2-----0-----0----0-2-3-----2-----0-----------------|


e---------------------------------------------------------------|
B---------------------------------------------------------------|
G----0-----2-----0-----0-----0-----2-----0-----0-----0------0---|
D--0--0--1--1--4--4--4--4--0--0--1--1--4--4--4--4--4--4---2--2--|
A---2--0--2--2--2--2--2--2--2--0--2--2--2--2--2--2--2--2-3-3--3-|
E-3-----2-----0-----0-----3-----2-----0-----0-----0-------------|


e----------------------------------------------------------|
B----------------------------------------------------------|
G----0-----2-----0-----0------0-----0-----2-----0------0---|
D--0--0--1--1--4--4--4--4---2--2--0--0--1--1--4--4---2--2--|
A---2--0--2--2--2--2--2--2-3-3--3--2--0--2--2--2--2-3-3--3-|
E-3-----2-----0-----0------------3-----2-----0-------------|

e----------------------------------------------------------|
B----------------------------------------------------------|
G----0-----2-----0-----0------0-----0-----2-----0------0---|
D--0--0--1--1--4--4--4--4---2--2--0--0--1--1--4--4---2--2--|
A---2--0--2--2--2--2--2--2-3-3--3--2--0--2--2--2--2-3-3--3-|
E-3-----2-----0-----0------------3-----2-----0-------------|

e----------------------------------------------------------|
B------------------------------------------------1-0-------|
G----0-----2-----0--------------0-----2-----0-------2-0----|
D--0--0--1--1--4--4--4-4------0--0--1--1--4--4---------2-0-|
A---2--0--2--2--2--2--2--------2--0--2--2--2--2-3----------|
E-3-----2-----0-----0----0-2-3-----2-----0-----------------|

e----------------------------------------------------------|
B------------------------------------------------1-0-------|
G----0-----2-----0--------------0-----2-----0-------2-0----|
D--0--0--1--1--4--4--4-4------0--0--1--1--4--4---------2-0-|
A---2--0--2--2--2--2--2--------2--0--2--2--2--2-3----------|
E-3-----2-----0-----0----0-2-3-----2-----0-----------------|

e----------------------------------------------------------|
B----------------------------------------------------------|
G----0-----2-----0-----0------0-----0-----2-----0------0---|
D--0--0--1--1--4--4--4--4---2--2--0--0--1--1--4--4---2--2--|
A---2--0--2--2--2--2--2--2-3-3--3--2--0--2--2--2--2-3-3--3-|
E-3-----2-----0-----0------------3-----2-----0-------------|

e----------------------------------------------------------|
B----------------------------------------------------------|
G----0-----2-----0-----0------0-----0-----2-----0------0---|
D--0--0--1--1--4--4--4--4---2--2--0--0--1--1--4--4---2--2--|
A---2--0--2--2--2--2--2--2-3-3--3--2--0--2--2--2--2-3-3--3-|
E-3-----2-----0-----0------------3-----2-----0-------------|

e----------------------------------------------------------|
B----------------------------------------------------------|
G----0-----2-----0-----0------0-----0-----2-----0------0---|
D--0--0--1--1--4--4--4--4---2--2--0--0--1--1--4--4---2--2--|
A---2--0--2--2--2--2--2--2-3-3--3--2--0--2--2--2--2-3-3--3-|
E-3-----2-----0-----0------------3-----2-----0-------------|

e----------------------------------------------------------|
B------------------------------------------------1-0-------|
G----0-----2-----0--------------0-----2-----0-------2-0----|
D--0--0--1--1--4--4--4-4------0--0--1--1--4--4---------2-0-|
A---2--0--2--2--2--2--2--------2--0--2--2--2--2-3----------|
E-3-----2-----0-----0----0-2-3-----2-----0-----------------|

e-----------------------------------------------------------|
B-----------------------------------------------------------|
G----0-----2-----2-----2-------0-----2------0-----0-----2---|
D--0--0--1--1--1--1--1--1----4--4--1--1---2--2--0--0--1--1--|
A---2--0--2--2--2--2--2--2----2--2--2--2-3-3--3--2--0--2--2-|
E-3-----2-----2-----2-----2-0-----2------------3-----2------|

e----------------------------|
B----------------------------|
G----0------0-----0-----2----|
D--4--4---2--2--0--0--1--1---|
A---2--2-3-3--3--2--0--2--2--|
E-0------------3-----2-----2-|

e----------------------------|
B----------------------------|
G----0------0-----0-----2----|
D--4--4---2--2--0--0--1--1---|
A---2--2-3-3--3--2--0--2--2--|
E-0------------3-----2-----2-|

e----------------------------|
B----------------------------|
G----0------0-----0-----2----|
D--4--4---2--2--0--0--1--1---|
A---2--2-3-3--3--2--0--2--2--|
E-0------------3-----2-----2-|

e----------------------------|
B----------------------------|
G----0------0-----0-----2----|
D--4--4---2--2--0--0--1--1---|
A---2--2-3-3--3--2--0--2--2--|
E-0------------3-----2-----2-|

e----------------------------|
B----------------------------|
G----0------0-----0-----2----|
D--4--4---2--2--0--0--1--1---|
A---2--2-3-3--3--2--0--2--2--|
E-0------------3-----2-----2-|

e----------------------------|
B----------------------------|
G----0------0-----0-----2----|
D--4--4---2--2--0--0--1--1---|
A---2--2-3-3--3--2--0--2--2--|
E-0------------3-----2-----2-|

e----------------------------|
B----------------------------|
G----0------0-----0-----2----|
D--4--4---2--2--0--0--1--1---|
A---2--2-3-3--3--2--0--2--2--|
E-0------------3-----2-----2-|
Suggest correction
Give kudos to tab author, rate the tab!
1 2 3 4 5
comments
print report bad tab
guest
You may want to rate the tab now too:
select rating
Please do not post tabs as comments. Select "correction" instead!