Oops, an error
Loading. Please wait.

Halfway Home Tab

version 3
version 3

Whole song

814 views 1 this week
no commentswrite comment
1 2 3 4 5
please rate
add to favorites
launch autoscroll
font size
0
reset
how to read this tab
guitar tuner
Tab Pro tools
  • play this tab
  • loop segment
  • change instrument
  • show fretboard
  • metronome
Autoscroll
slow
fast
+/-
esc
set tempo
stop
Contributor
Difficulty
intermediate
capo 2


e|-----------------------------------------------------------------------------------|
B|--------------------------------------0-------1-0----------------------------------|
G|------------0------------2----------0--0---------2-0------------0----------2-------|
D|--------0-----0----1---1---1------4-----4-----------2-0---0---0--0----1--1--1------|
A|----------2-----2----0-------0---2-------2-3----------------2------2----0-----0----|
E|--0-2-3-----------2------------0-------------------------3-----------2----------0--|

e|-----------------------------0----------|
B|----------------------3-----------------|
G|--------0-----------0---0---------------|
D|--4---4---4-------4-------4-------------|
A|----2-------2---2-----------------------|
E|--------------0-------------------------|           (repeat for whole song)



I used to walk along the opposite side of the road and made others get out of my way

I used to think I could sit and wait for the times

but they wont come until I meet them halfway



I'm halfway home and I'm on my own

I'm halfway there and I don't care, I don't mind

I plan to leave here after supper time

that's when traffic is light, all I need is a sign

and I'll be alright. I'll be fine



I used to think that i could just sleep and then I'd dream

And everything it would come to me

Until I woke one day without anything to eat

Lying on the opposite side of the street



I'm halfway home and I'm still out on my own

I'm halfway there and I don't care, I don't mind

Because it ain't my time to stay or sayÉ

I'll never lay down.



I used to think that I could just sit and wait for the time

But I know I gotta meet them halfway



I'm halfway home I tried home running with the flow

I'm halfway there. Ain't it funny how everybody seems to care

I planned to get there around supper time their serving up bread and wine

All I needed was a sign and I'll be allright.

I'll be fine.



(It seems to be a running theme about being fine and allright but I don't mind.)
comments
We did not receive enough feedback on this tab! Please rate:
print report bad tab
1 2 3 4 5
I want to post or [tab]
guest
You may want to rate the tab now too:
select rating
Please do not post tabs as comments. Select "correction" instead!