Oops, an error
Loading. Please wait.

I Wont Give Up Bass Tab

version 1
version 1

Whole song

Interactive

13,485 views 24 this week
no commentswrite comment
1 2 3 4 5
accurate
x 3
add to favorites
launch autoscroll
font size
0
reset
guitar tuner
Tab Pro tools
  • play this tab
  • loop segment
  • change instrument
  • show fretboard
  • metronome
×
Best way to learn
"I Wont Give Up"
Autoscroll
slow
fast
+/-
esc
set tempo
stop
Contributor
Difficulty
intermediate
I Wont Give Up - Bass Tab
by Jason Mraz

Tabbed By: hjones13
Email: hjones@gaggle.net

: 02
----------------------------------------------------------------------|
----------------------------------------------------------------------|
------------------------------2---2-----------------------------------|
-0-0-00-0--0-0-00-0-0-0-00-0----2-------0-0-00-0--0-0-00-0---0-0-00-0-|


-----------4-44-------------------------------------------------------|
----------------------------------------------------------------------|
-------------------------------------------------------2-----2--------|
-0-0-00-0----------0-0-00-0-----0-0-00-0----0-0-00-0-------2----------|

1:05                           1:26
--2----------------4--------------------------------------------------|
----2------------2---4----------222---2-------------------------------|
------4-2----------------2---------------2----2------2----------------|
----------4-5-5----------------------------------2--------------------|

1:47
----------------------------------------------------1--4--------------|
------2--------------------2----2--------------4----------------------|
---0-------4-4-2---------0----------2---------------------------------|
------------------2-4-------------------------------------------------|

2:08
----------------2-1---------------------------------------------------|
------------2---------4-2-----------------------------2---------------|
----22-----------------------0----------------------4---4-------------|
-------5-5------------------------4------2-2-2-2----------------------|

2:17
---------------------------4------------------------------------------|
---------2--------------4------4--------------------------------------|
---------------0-2-2-----------0---2-2-2-2-2-0-2----------------------|
-2-2-2-2----2---------------------------------------------------------|

2:36
--------------------------------------------------4-6-4---------------|
--0-----0--------0-------0-------0-------------4---------4------------|
------0--------0-------0-------0---6-6-6-6-6-----------------6--------|
-----------------------------------------------------------------6----|


----------------------------------------------------------------------|
------------------0-1-1-1------2-2------------2-2-2-------------------|
------5--2--5-0-----------2----------2-0-2----------------------------|
-----------------------------------------------------0---2----4-------|


----------------------------------------------------------------------|
----------------2-----2-----------------------------------------------|
----0------0-------2-------4----4---2------------0--------------------|
--------0--------------------------------2---4------------------------|


----------------------------------------------9-8-6-8---8-6-4---------|
---------------2---2------------------------------------------4-------|
-----0-0-2--------------4-4-------------------------------------2---4-|
--0-------------------------------------------------------------------|

3:18
----------------------------------------------------------------------|
------------------------------------2---------------------------------|
-------0-0-0-0-0-0-------------2----------2-4-4---4----4--------------|
--------------------0-0----------------4------------4-----------------|


----------------------------------------------------------------------|
--1---2-1-------------------------2-2-2-2-----------------------------|
------------2-----2-0-0-0-0-0-2------------2----2------2--------------|
---------------2-----------------------------4-------2----------------|


----------------------------------------------------------------------|
------------------2-2-2-2----2----------------------------------------|
--0-0-0-0-0-0-------------2--------4-4-4-4-4-4------------------------|
----------------------------------------------------------------------|


----------------------------------------------------------------------|
----------------------2-----------------------------------------------|
--2-2-2-2-2-2----0--------2-------------------------------------------|
----------------------------------------------------------------------|
comments
We did not receive enough feedback on this tab! Please rate:
print report bad tab
1 2 3 4 5
I want to post or [tab]
guest
You may want to rate the tab now too:
select rating
Please do not post tabs as comments. Select "correction" instead!