Oops, an error
Loading. Please wait.

I Wont Give Up Bass Tab

version 2
version 2

Whole song

Interactive

2,689 views 6 this week
no commentswrite comment
1 2 3 4 5
3 more votes to show rating
add to favorites
launch autoscroll
font size
0
reset
guitar tuner
Autoscroll
slow
fast
+/-
esc
set tempo
stop
Help us to improve Ultimate-Guitar.com Take our survey!
×
Author
Difficulty
novice
Name: Jason Mraz
Song: I Won't Give Up

Hey, this is my first tab- done by ear, please rate :)

Tabbed by - frankie10011


      (Starting Playing when singing starts...)

      -------------------------------------------------------------------|
(2x)  -------------------------------------------------------------------|
      ---------7---------7---------7-------------------------------------|
      ----5---------5---------5---------7--------------------------------|


      -------------------------------------------------------------------|
      ---------------------------------------9---------------------------|
      ---------7----4----2---------7-------------------------------------|
      ----5-------------------5---------7--------------------------------|


      -------------------------------------------------------------------|
      -------------------------------------------------------------------|
      ---------7---------7---------7-------------------------------------|
      ----5---------5---------5---------7--------------------------------|


      -------------------------------------------------------------------|
      -------------------------------------------------------------------|
      ---------7----4----2---------7---------4---------------------------|
      ----5-------------------5---------7--------------------------------|


      -------------------------------------------------------------------|
      -------------------------------------------------------------------|
      ------------------------2----2----2----2---------------------------|
      ----2----2----2----2------------------------2----2----2----2-------|


      -------------------------------------------------------------------|
      -------------------------------------------------------------------|
      ----5----5----5----5----6----6----6----6----5----5----5----6----7--|
      -------------------------------------------------------------------|


      -------------------------------------------------------------------|
(2x)  -------------------------------------------------------------------|
      ---------7----4----2---------7-------------------------------------|
      ----5-------------------5---------7--------------------------------|



Hope you enjoyed, sorry for any mistakes- please rate :)
frankie10011
Suggest correction
Give kudos to tab author, rate the tab!
1 2 3 4 5
comments
print report bad tab
guest
You may want to rate the tab now too:
select rating
Wanna post a correction for this tab? Suggest correction