Oops, an error
Loading. Please wait.

I Wont Give Up Tab

version 3
version 3
110,773 views 27 this week
no commentswrite comment
1 2 3 4 5
x 6
add to favorites
launch autoscroll
font size
0
reset
how to read this tab
guitar tuner
Autoscroll
slow
fast
+/-
esc
set tempo
stop
Help us to improve Ultimate-Guitar.com Take our survey!
×
Author
Difficulty
Capo
intermediate
2nd fret
Standard Tuning
Capo: 2nd fret

[Intro/Verse]
e|------------------------------------------------------------------|
B|-------------------------------------------------------------0h2--|
G|---------------4-4---2-2---2-2--------------------2-2-2--2---2----|
D|0-0-0---2-4----5-5---0-0---0-0—--x3---0-0-0--2-4--2-2-2--2--------|
A|---------------5---5-----0------------------------0----0---0------|
E|------------------------------------------------------------------|

e|--------------------------------------------------------|
B|--------------------------------------------------------|
G|-2------------------------------------------------------|
D|-2------------------------------------------------------|
A|---0----------------------------------------------------|
E|--------------------------------------------------------|(x2)


[Verse 1]
(G  D  A)

When I look into your eyes, it's like watching the night skies
all the beautiful sunrise, well there's so much they hold
And just like them old stars, i see that you've come so far
To be right where you are, how old is your soul (A)

[Chorus 1]
(G  D  Bm  Asus2  G  D  Asus)

And i won't give up on us
Even if the skies get rough
I'm giving you all my love
I'm still looking u-up

[Verse 2]
(same as verse 1)

And when you're needing you space
To do some of navigating
I'll be here patiently waiting
To see what you find

[Chorus 2]
(G  D  Bm Asus2 G  D Asus)

See even the starts they burn
Some even fall to the earth
We got a lot to learn
God knows were worth it
No! I won't give u,up..

[Bridge]

         Em
I don't want to be someone who walks aways so easily, 
                                        A
I'm here to stay and make the difference that i can make
        Em
A difference is they do what allow to teach how to use the tools 
                              A
ang guess we got here, we got a lot at stake
           C
And in the end you're still my friend and least we did intend for us to work we didn't          
break, we didn't burn 
            C#
we had to learn, how to bend, without the world giving in, 
          C                              C#             D
I had to learn what i got, and what i'm not and who i aa-a-am

[Chorus 1]
(G  D  Bm  Asus2  G  D  Asus)

And i won't give up on us
Even if the skies get rough
I'm giving you all my love
I'm still looking u-up

Repeat Chorus again twice to the end
   (the end slows down)



************************************

| h  Hammer-on
| x  Dead note

************************************
Suggest correction
comments
print report bad tab
guest
You may want to rate the tab now too:
select rating
Wanna post a correction for this tab? Suggest correction