Oops, an error
Loading. Please wait.

I Wont Give Up Chords

version 4
version 4
263,830 views 3,285 this week
2 commentsread comments
1 2 3 4 5
accurate
x 9
add to favorites
launch autoscroll
font size
0
reset
transpose
0
reset
simplify chords
display chords
guitar tuner
Autoscroll
slow
fast
+/-
esc
set tempo
stop
Help us to improve Ultimate-Guitar.com Take our survey!
×
Contributor
'I won't give up' by 'Jason mraz
I don't know if the name of the chords are correct.
So I put it in how you have to play.
Good luck
CAPO 2nd Fret

Chords:
  
     Ab9      D      Bm       A       G       C      C#m
E|-------|---2---|-------|-------|---2---|-------|-------|
B|---3---|---3---|---3---|---2---|---2---|---1---|-------|
G|---x---|---2---|---4---|---2---|-------|-------|-------|
D|---4---|-------|---4---|---2---|-------|---2---|---2---|
A|---5---|-------|---2---|-------|---2---|---3---|---4---|
E|---5---|-------|-------|-------|---3---|-------|---4---|


[Intro]

E|-------------------------------------------|
B|-------------------------------------------|
G|--------------4---4-4---2---2-2---2---2-2--| 3X
D|--0--0--2--4--5---5-5---4---4-4---4---4-4--|
A|--------------5---5-5----------------------|
E|-------------------------------------------|

E|-------------------------------------------|
B|-----------3---3-3-----3---3-3-----2-------|
G|-----------2---2-2-----2---2-2-----2-------|
D|--4--2--0--2---2-2-----2---2-2-----2-------|
A|-------------------------------------------|
E|-------------------------------------------|


[Verse] 

(play Intro)

When I look into your eyes
It's like watching the night sky
Or a beautiful sunrise
So much they hold                         
And just like them old stars
I see that you've come so far
To be right where you are
How old is your soul?


[Chorus]

            Ab9    D
I won't give up on us
             Bm        A
Even if the skies get rough
               Ab9      D
I'm giving you all my love
                  A
I'm still looking up


[Verse]

(play Intro)

And when you're needing your space
To do some navigating                   
I'll be here patiently waiting
To see what you find


[Bridge]

                Ab9         D
'Cause even the stars they burn
           Bm           A
Some even fall to the earth
         Ab9      D
We got a lot to learn
                  A
God knows we're worth it
            Ab9
No I won't give up


         G
I don't wanna be someone who walks away so easily
                                              A
I'm here to stay and make the difference that I can make
         G
Our differences they do a lot to teach us how to use
                                               A
The tools, the skills we've got yeah we got a lot at stake

            C
And in the end, you're still my friend at least we didn't tend
          C
For us to work we didn't break, we didn't burn
           C#m
We had to learn how to bend without the world caving in
   C                        C#m
I had to learn what I got, and what I'm not
     D
And who I am


[Chorus]

            Ab9    D
I won't give up on us
             Bm        A
Even if the skies get rough
               Ab9      D
I'm giving you all my love
                  A
I'm still looking up
       A
still looking up

               Ab9    D
No I won't give up on us
               Bm     A
God knows I've had enough
         Ab9     D
We got a lot to learn
             A
God know we're worth it

            Ab9    D
I won't give up on us
             Bm        A
Even if the skies get rough
               Ab9      D
I'm giving you all my love
                  A
I'm still looking up


Something like that...
comments
print report bad tab
2 comments total.
0 reply
ahmadhidayat404 11 wrote on September 11 2013, 02:24 am

i like it this soong

0 reply
shreeteshthapa 12 wrote on March 3 2015, 11:48 pm

i do not think AB9 suits it. check it again.

I want to post or [tab]
guest
You may want to rate the tab now too:
select rating
Please do not post tabs as comments. Select "correction" instead!