Oops, an error
Loading. Please wait.

I Wont Give Up Tab

version 7
version 7
74,981 views 63 this week
1 commentread comment
1 2 3 4 5
x 19
add to favorites
launch autoscroll
font size
0
reset
how to read this tab
guitar tuner
Autoscroll
slow
fast
+/-
esc
set tempo
stop
Help us to improve Ultimate-Guitar.com Take our survey!
×
Author
Difficulty
novice
Tabbed by: Michael Gilbert
E-Mail: mjgj96@aim.com

(I tabbed out two different ways to learn this song.  One is in parts, so you memorize
the part, and then you just look at the order (Tab One).  The other way is the whole song
at once (Tab Two).  You can choose whichever method that suits your learning technique 
best, but both tabs are exactly the same when played.)

1. Version
Tuning: Standard (EADGBe)
(Frets labeled in parenthesis () are optional)

[Part A] x2
e|-------------------------------------|
B|-------------------------------------|
G|------------------6--6--4--4---4--4--|
D|--------------6---7--7--6--6---6--6--|
A|--7--7-7---9-------------------------|
E|------------------0-----0----0-------|

e|------------------------|
B|------------------------|
G|-----------9--9---9--8--|
D|--6--------9--9---9--9--|
A|-----9--7--9--9---9--9--|
E|-----------7----7-------|

[Part B]
e|---------------------------------|
B|----------5---4------------------|
G|--6---9---6---4---6---9---8-9-8--|
D|--7---9---6---4---7---9---9-9-8--|
A|--7---7---4---2---7---7---9-9-9--|
E|--5---0-----------5---0---7-7-7--|

[Part A]
e|-------------------------------------|
B|-------------------------------------|
G|------------------6--6--4--4---4--4--|
D|--------------6---7--7--6--6---6--6--|
A|--7--7-7---9-------------------------|
E|------------------0-----0----0-------|

e|------------------------|
B|------------------------|
G|-----------9--9---9--8--|
D|--6--------9--9---9--9--|
A|-----9--7--9--9---9--9--|
E|-----------7----7-------|

[Part B]
e|---------------------------------|
B|----------5---4------------------|
G|--6---9---6---4---6---9---8-9-8--|
D|--7---9---6---4---7---9---9-9-8--|
A|--7---7---4---2---7---7---9-9-9--|
E|--5---0-----------5---0---7-7-7--|

[Part C]
e|---------|
B|---------|
G|--6---8--|
D|--7---9--|
A|--7---9--|
E|--5---7--|

[Part D]
e|-(2)------------------------|
B|--2-------------------------|
G|--2------------8--8--9--8---| x2
D|--4------------9--9--9--9---|
A|--4------------9--9--9--9---|
E|--2------------7--7--7--7---|

e|---------------------------------------------------------|
B|---------------------------------------------------------|
G|---7-----------(10)-----------7----(10)-----9------------|
D|---7------------13------------7-----13------9------------|
A|---9------------10------------9-----10------7------------|
E|--10------------11-----------10-----11-----(0)-----------|

[Part B] x2
e|---------------------------------|
B|----------5---4------------------|
G|--6---9---6---4---6---9---8-9-8--|
D|--7---9---6---4---7---9---9-9-8--|
A|--7---7---4---2---7---7---9-9-9--|
E|--5---0-----------5---0---7-7-7--|


(Play this last one soft unless you want to sound exactly like the recording,
then play just the base (lowest) note)
[Part B]
e|---------------------------------|
B|----------5---4------------------|
G|--6---9---6---4---6---9---8-9-8--|
D|--7---9---6---4---7---9---9-9-8--|
A|--7---7---4---2---7---7---9-9-9--|
E|--5---0-----------5---0---7-7-7--|

2. Version

e|-------------------------------------|
B|-------------------------------------|
G|------------------6--6--4--4---4--4--| x3
D|--------------6---7--7--6--6---6--6--|
A|--7--7-7---9-------------------------|
E|------------------0-----0----0-------|

e|------------------------|
B|------------------------|
G|-----------9--9---9--8--|
D|--6--------9--9---9--9--|
A|-----9--7--9--9---9--9--|
E|-----------7----7-------|

e|-------------------------------------|
B|-------------------------------------|
G|------------------6--6--4--4---4--4--| x3
D|--------------6---7--7--6--6---6--6--|
A|--7--7-7---9-------------------------|
E|------------------0-----0----0-------|

e|------------------------|
B|------------------------|
G|-----------9--9---9--8--|
D|--6--------9--9---9--9--|
A|-----9--7--9--9---9--9--|
E|-----------7----7-------|

e|---------------------------------|
B|----------5---4------------------|
G|--6---9---6---4---6---9---8-9-8--|
D|--7---9---6---4---7---9---9-9-8--|
A|--7---7---4---2---7---7---9-9-9--|
E|--5---0-----------5---0---7-7-7--|

e|-------------------------------------|
B|-------------------------------------|
G|------------------6--6--4--4---4--4--| x3
D|--------------6---7--7--6--6---6--6--|
A|--7--7-7---9-------------------------|
E|------------------0-----0----0-------|

e|------------------------|
B|------------------------|
G|-----------9--9---9--8--|
D|--6--------9--9---9--9--|
A|-----9--7--9--9---9--9--|
E|-----------7----7-------|

e|---------------------------------|
B|----------5---4------------------|
G|--6---9---6---4---6---9---8-9-8--|
D|--7---9---6---4---7---9---9-9-8--|
A|--7---7---4---2---7---7---9-9-9--|
E|--5---0-----------5---0---7-7-7--|

e|---------|
B|---------|
G|--6---8--|
D|--7---9--|
A|--7---9--|
E|--5---7--|

e|-(2)------------------------|
B|--2-------------------------|
G|--2------------8--8--9--8---| x2
D|--4------------9--9--9--9---|
A|--4------------9--9--9--9---|
E|--2------------7--7--7--7---|

e|---------------------------------------------------------|
B|---------------------------------------------------------|
G|---7-----------(10)-----------7----(10)-----9------------|
D|---7------------13------------7-----13------9------------|
A|---9------------10------------9-----10------7------------|
E|--10------------11-----------10-----11-----(0)-----------|

e|---------------------------------|
B|----------5---4------------------|
G|--6---9---6---4---6---9---8-9-8--|
D|--7---9---6---4---7---9---9-9-8--|
A|--7---7---4---2---7---7---9-9-9--|
E|--5---0-----------5---0---7-7-7--|

e|---------------------------------|
B|----------5---4------------------|
G|--6---9---6---4---6---9---8-9-8--|
D|--7---9---6---4---7---9---9-9-8--|
A|--7---7---4---2---7---7---9-9-9--|
E|--5---0-----------5---0---7-7-7--|

(Play this last one soft unless you want to sound exactly like the recording, then play
just the base (lowest) note)

e|---------------------------------|
B|----------5---4------------------|
G|--6---9---6---4---6---9---8-9-8--|
D|--7---9---6---4---7---9---9-9-8--|
A|--7---7---4---2---7---7---9-9-9--|
E|--5---0-----------5---0---7-7-7--|
Suggest correction
comments
print report bad tab
1 comment total.
+2 reply
slayr 10 Mar 20, 2013 10:46 PM

thank u so much

guest
You may want to rate the tab now too:
select rating
Wanna post a correction for this tab? Suggest correction