Oops, an error
Loading. Please wait.

I Wont Give Up Tab

version 9
version 9
23,317 views 60 this week
1 commentread comment
1 2 3 4 5
excellent!
x 13
add to favorites
launch autoscroll
font size
0
reset
how to read this tab
guitar tuner
Tab Pro tools
  • play this tab
  • loop segment
  • change instrument
  • show fretboard
  • metronome
×
Best way to learn
"I Wont Give Up"
Autoscroll
slow
fast
+/-
esc
set tempo
stop
Difficulty
advanced
I Wont Give Up

Verse 1
e------------------------------------------------------------|
B------------------------------------------------------------|
G------------6----4----4----------6-6--4----4----------------|
D--------4-6-7-7--6-6--6-6----4-6-7----6-6--6----------------|
A-7--7-7--------------------7--------------------------------|
E------------0--0-0--0-0--0-------0--0-0--0-0----------------|

e--------------0---------------------------------------------|
B-----------------5-------------5---5--4---------------------|
G------------6----4-------------4---4--4---------------------|
D--------4-6-7—-7-6-6--6--6-4-2-4---4--4---------------------|
A-7--7-7------------------------2-2---2----------------------|
E------------0-------0-0-------------------------------------|
 When I look into your
e------------------------------------------------------------|
B------------------------------------------------------------|
G-------------6----4-----------------6-6--4------------------|
D-------------7-7--6-6--6--------4-6-7----6-6--6-------------|
A-------------------------7--7-7-----------------------------|
E-------------0--0-0--0-0------------0--0-0--0-0-------------|

e--------------0---------------------------------------------|
B-----------------5-------------4----5----4------------------|
G------------6----4-------------4-4--4-4--4------------------|
D--------4-6-7--7-6-6--6--6-4-2------------------------------|
A-7--7-7------------------------2--2-2--2-2------------------|
E------------0-------0-0-------------------------------------|
 Just like them old
e---------------------------------------7--------------------|
B------------10-10--9-9--9-9-------9-10---9------------------|
G-----------------------------9-11---------------------------|
D------------7----7-6--6-6--6------6-7-----6-6-6-------------|
A-----------------------------7-9----------------------------|
E-------------------------------------------00--0------------|

e------------------------------------------------------------|
B------9-10-9-------------9-7-5-5----------------------4-----|
G-9-11----------------------------4---4----------------4-----|
D------6-7--6-6--6-6--6-6-6-4-2-2-4-4-4-4(h)6(p)4(p)2--4-----|
A-7-9-----------------------------2---2----------------------|
E--------------0-0--0-0--0-----------------------------------|
 Chorus 1       A    E   C#m   B      A    E   Bsus4 B
e-------------0----0----0----0------0----0----X----X-------------------|
B-------------5----0----5----7------2----0----5----4-------------------|
G-------------2----1----6----8------2----1----4----4-------------------|
D-------------2----2----6----9------2----2----4----4-------------------|
A-------------0----2----4----9------0----2----2----2-------------------|
E-------------0----0----X----X------0----0----X----X-------------------|





Verse 2
e---------------------------------7--------------------------------|
B-9-11-9-7-10-9---------9-11-9-10---9---------9-11-9-10-9----------|
G------------------------------------------------------------------|
D-7-9--6-6-7--6-6--6-6--7-9--6-7------6--6-6--7-9--6-7--6-6--6-6---|
A------------------------------------------------------------------|
E----------------0-0--0----------------0-0--0--------------0-0--0--|

e------------------------------------------------------------------|
B-9-7-5-5------5----4----------------------------------------------|
G-------4-----------4----------------------------------------------|
D-6-4-2-4—4/6-6-4\2-4----------------------------------------------|
A-------2----------------------------------------------------------|
E------------------------------------------------------------------|
 Chorus 2               No I won’t give up
e--0--0--0--0---0--0--X--X-------------4-----------4---------------|
B--2--0--5--7---2--0--5--5-------------------7-----------7---------|
G--2--1--6--8---2--1--4--4----------------6-----6-----6-----6------|
D--2--2--6--9---2--2--4--4-------------7-7-7-7-7-7-7-7-7-7-7-7-----|
A--0--2--4--9---0--2--2--2-----------------------------------------|
E--0--0--X--X---0--0--X--X-----------------------------------------|
Bridge  F#m  A   B               F#m  A   B
e--------5---5---7----------------5---5---X----------------------------|
B--------7---5---7-----------7-9--7---5---4---2-2-2-0------------------|
G--------6---6---8-----6-8-8------6---6---4----------------------------|
D--------7---7---9---9------------7---7---4----------------------------|
A--------X---7---9----------------X---7---2----------------------------|
E--------5---5---7----------------5---5---2----------------------------|
   D  D#m/B      D#m/B D  D#m/B    E
e-------X-----X---X--------X-------0-----------------------------------|
B--7----7-----10--7----7---7-------0-----------------------------------|
G--7----8-----X---8----7---8-------1-----------------------------------|
D--7----8-----8---8----7---8-------2-----------------------------------|
A--5----X-----X---X----5---X-------2-----------------------------------|
E--5----7-----7---7----5---7-------0-----------------------------------|
End Chorus   A   E   C#m B   A   E  Bsus4  B
e------------0---0---0---0---0---0---X-----X---------------------|
B------------2---0---5---7---2---0---5-----4---------------------|
G------------2---1---6---8---2---1---4-----4---------------------| x2
D------------2---2---6---9---2---2---4-----4---------------------|
A------------0---2---4---9---0---2---2-----2---------------------|
E------------0---0---X---X---0---0---X-----X---------------------|
   A   E        C#m      B    A   E   B
e--0---0-----------------X----0---0---X----------------------------|
B--2---0---------5-------4----2---0---4----------------------------|
G--2---1-------6---6-----4----2---1---4----------------------------|
D--2---2-----6-------6---4----2---2---4----------------------------|
A--0---2---4-------------2----0---2---2----------------------------|
E--0---0-----------------2----0---0---2----------------------------|
comments
print report bad tab
1 comment total.
0 reply
Andy Fults wrote on May 13 2013, 11:34 pm

Thanks so much!!!! Great job

I want to post or [tab]
guest
You may want to rate the tab now too:
select rating
Please do not post tabs as comments. Select "correction" instead!