Oops, an error
Loading. Please wait.

Im Yours Acoustic Tab

version 2
version 2

Whole song

Interactive

Video

29,308 views 9 this week
no commentswrite comment
1 2 3 4 5
accurate
x 3
add to favorites
launch autoscroll
font size
0
reset
how to read this tab
guitar tuner
Tab Pro tools
  • play this tab
  • loop segment
  • change instrument
  • show fretboard
  • metronome
×
Best way to learn
"Im Yours Acoustic"
Autoscroll
slow
fast
+/-
esc
set tempo
stop
Contributor
Song: I'm Yours
Artist: Jason Mraz

Tuning: Standard


Guitar 1 Intro /

E|-7/9-9\7--7/9-9\7-7/9-------------7/9-9\7--7/9-9\7-7/9----------|
B|-7/9-9\7--7/9-9\7-7/9-------------7/9-9\7--7/9-9\7-7/9----------|
G|----------------------8--8/9---------------------------8--8-8/9-|
D|-----------------------------9----------------------------------|
A|----------------------------------------------------------------|
E|----------------------------------------------------------------|

He may use both B and E. You can do it either way.


Guitar 2 Intro / Guitar 1 Verse / Guitar 1 Chorus:

|-----------------------------------------------------------------------------|
|-----------------------------------------9-xx-9-xx-9-xx-9--------------------|
|---4-xx-4-xx-4-xx-4---6-xx-6-xx-6-xx-6---8-xx-8-xx-8-xx-8---9-xx-9-xx-9-xx-9-|
|---4-xx-4-xx-4-xx-4---4-xx-4-xx-4-xx-4-6--------------------9-xx-9-xx-9-xx-9-|
|-2--------------------------------------------------------7------------------|
|--------------------2--------------------------------------------------------|

At the end of the last verse of chorus:

|-------------------------------------------------------------------------------------------------|
|-----------------------------------------9-xx-9-xx-9-xx-9----------------------------------------|
|---4-xx-4-xx-4-xx-4---6-xx-6-xx-6-xx-6---8-xx-8-xx-8-xx-8---9-xx-9-xx-9-xx-9--10-10-10-10-10-10/-|
|---4-xx-4-xx-4-xx-4---4-xx-4-xx-4-xx-4-6--------------------9-xx-9-xx-9-xx-9--9--9--9--9--9--9-/-|
|-2--------------------------------------------------------7-------------------11-11-11-11-11-11/-|
|--------------------2----------------------------------------------------------------------------|

Bridge:

|--------------------------------------------------------------------------------------|
|--------------------------------------------------------------------------------------|
|---4-4-x-4---4-4-x-4---6-6-x-6--4-4-x-4---4-4-x-4-x-4-4-x-4--10-10-x-10-x-10-10-x-10--|
|---4-4-x-4---4-4-x-4---6-6-x-6--4-4-x-4---2-2-x-2-2-2-2-x-2--9--9--x-9--x-9--9--x-9---|
|-2---------1-------------------------------------------------11-11-x-11-x-11-11-x-11--|
|---------------------4---------2--------0---------------------------------------------|

There is a part where you hear the intro riff again, with a slight variation:

E|-7/9-9\7--7/9-9\7-7/9---7---7---|
B|-7/9-9\7--7/9-9\7-7/9----7--7---|
G|----------------------8---8-8/9-|
D|--------------------------------|
A|--------------------------------|
E|--------------------------------|

For comments / suggestions, mail Tabs (at) sr-studio.com
comments
We did not receive enough feedback on this tab! Please rate:
print report bad tab
1 2 3 4 5
I want to post or [tab]
guest
You may want to rate the tab now too:
select rating
Please do not post tabs as comments. Select "correction" instead!