Oops, an error
Loading. Please wait.
We have an official Im Yours tab made by UG professional guitarists. Check out the tab »
×

Im Yours Tab

version 1
version 1

Intro

Interactive

1,170,305 views 291 this week
12 commentsread comments
1 2 3 4 5
x 181
add to favorites
launch autoscroll
font size
0
reset
how to read this tab
guitar tuner
Autoscroll
slow
fast
+/-
esc
set tempo
stop
Author
Tuning
E A D G B E
-------------------------------------------------------------------------------
                             I'm Yours (Intro) - Jason Mraz
-------------------------------------------------------------------------------
Tabbed by: Jon4sLuv3r

Tuning: Standard

I know there is already an intro tab for this song but it's only rated 2 stars so i 
this one will do better.
I was just playing around with my guitar when i plucked the first notes to this song by 
and the idea to finish the intro sparked.
so ya heeerrreeee:
pluck the strings and slide at certain spots


[Intro]

e|--7/9--7~-----7/9--6~-----2/4-------------------------------|
B|--7/9--7~-----7/9--7~-----2/4--4~-----4-4h5-----------------|
G|-------------------------------4~-----4-4-------------------|
D|------------------------------------------------------------|
A|------------------------------------------------------------|
E|------------------------------------------------------------|



************************************

| /  Slide up
| ~  Vibrato

************************************
Suggest correction
There is a new version of this tab from 1 day ago which you may like more. Go check it out:
comments
print report bad tab
12 comments total. Showing first comments.
-2 reply
smokin man1 10 Nov 15, 2009 01:24 PM

not bad. better than the others

+5 reply
Nubforce 10 Dec 30, 2009 10:16 PM

e|--7/9--7~-----7/9--6~--
B|--7/9--7~-----7/9--7~--
G|-----------------------
D|-----------------------
A|-----------------------
E|-----------------------

I think that sounds a little better. Other than that spot on indeed.

+14 reply
Flycstr 557 Feb 12, 2010 08:17 AM

Nubforce almost had it right. I tried posting this separately, but UG management is cracking down on posting new versions, evidently.

Out of all the "I'm Yours" tabs I found, none had the right intro riff. If you listen closely (to the studio version at least), you'll hear the high note from xxx676 as shown below. This is standard tuning, no capo. I know Mraz uses capo 2 in concerts, but there's no need since all the chords are barred anyway (B, F#, G#m, E)... Enjoy!

Intro:
e|--7/9--7~-----7/9--6~---------------------------|
B|--7/9--7~-----7/9--7~-----7/9-------------------|
G|-------------------6~-----6/8--8~----8--8h9-----|
D|-------------------------------9~----9--9-------|
A|------------------------------------------------|
E|------------------------------------------------|

guest
You may want to rate the tab now too:
select rating
Wanna post a correction for this tab? Suggest correction