Oops, an error
Loading. Please wait.
We have an official Im Yours tab made by UG professional guitarists. Check out the tab »
×

Im Yours intro tab

79 views 3 this week
1 commentread comment
1 2 3 4 5
3 more votes to show rating
add to favorites
×
Save as Personal and add changes to this tab that will be seen only by you. Learn more ›
×
You can save this tab as Personal to edit and correct it or add notes. All changes will be seen only by you. Learn more »
launch autoscroll
font size
0
reset
how to read this tab
guitar tuner
edit
Autoscroll
slow
fast
+/-
esc
set tempo
stop
About this tab version
All tabs I found showed a normal played intro without the little tune before it, this is with that tune. Was this info helpful? Yes No
Do the little slide before playing the chord, this is what you hear when listening to the song.

(Seen from Capo on 4th fret.)
e|--3/5-------------------|
B|--3/5-------------------|
G|------------------------|
D|------------------------|
A|------------------------|
E|------------------------|

G chord
e|--3/5-------------------|
B|--3/5-------------------|
G|------------------------|
D|------------------------|
A|------------------------|
E|------------------------|

D chord
(Lift middle finger off the e string and continue)
e|------------------------|
B|--3/5-------------------|
G|--2/4-------------------|
D|------------------------|
A|------------------------|
E|------------------------|
Em C

e|--3/5-------------------|
B|--3/5-------------------|
G|------------------------|
D|------------------------|
A|------------------------|
E|------------------------|
G D Em C

[Strumming pattern]
D D UD D UD D U U

The Tempo is in shuffle, If you don't know how to play shuffle, I recommend you learn it since it is used in
a lot of blues songs.
Suggest correction
Creating personal tab
Creating personal tab
You can edit any tab online and save it as your Personal.

You can edit, replace or remove any tab part or add personal notes – all changes will be seen only by you.

Personal tabs can be accessed anytime from any device, even offline.
Learn more »
Give kudos to tab author, rate the tab!
1 2 3 4 5
comments
print report bad tab
1 comment total.
0 reply
alanfield 10 7 hours ago

kind of figured it out. I think you do the 3-5 slide play chord and on D you do the B- 3/5-
G|--2/4--- and so on

guest
You may want to rate the tab now too:
select rating
Wanna post a correction for this tab? Suggest correction