Oops, an error
Loading. Please wait.

Im Yours Bass Tab

version 3
version 3

Whole song

Interactive

39,126 views 6 this week
1 commentread comment
1 2 3 4 5
accurate
x 7
add to favorites
launch autoscroll
font size
0
reset
guitar tuner
Autoscroll
slow
fast
+/-
esc
set tempo
stop
Help us to improve Ultimate-Guitar.com Take our survey!
×
I'm Yours - Jason Mraz (Album Version)
Tabbed By Alex r
Comments to my_lonely_heart_breaks@hotmail.com

Tuning: Standard Tuning

No bass until 1:05ish

Verse (Well open up your mind)
G|----------------------------------------------|
D|-----------022/44---44-4/66---66-44\22---22-4-|
A|-2-2---22-------------------------------------|
E|----------------------------------------------|

(listen to the music)
G|---------------------------------------------------------------|
D|-----------022/44---44-4/66---66-44\22---22-3-(Hold last note)-|
A|-2-2---22------------------------------------------------------|
E|---------------------------------------------------------------|

Chorus (So, i won't hesitate no more)
G|---------------------------------------------|
D|-----------022/44---44-4/66---66-4\22---22-4-|
A|-2-2---22------------------------------------|
E|---------------------------------------------|

(there's no need to complicate(
G|--------------------------------------------|
D|-----------022/44---44-4/66---66-4\22--22-4-|
A|-2-2---22-----------------------------------|
E|--------------------------------------------|

(D-d-d do you)
G|--------------------------------------------------------|
D|-------------------------------2-2----22--2-2-3-3---3\0-|
A|-2-2---0-1-1--------------------------------------------|
E|---------------0-4-4---0-2-2----------------------------|

(Wwaaooooo)
G|--------------------------------------------------|
D|-----------------------------------0/2--------3\0-| Stop (2:23ish)
A|-2-2---0-1-1--------------------------------------|
E|---------------0-4-4---0-2-2--0-0------0-1-1------|

Bass in 3:02ish

Fill back into vesre
G|--------|
D|--------|
A|-----01-|
E|-024----|

(Open up your mind and you will see)
G|-----------------------------------------------------|
D|-----------022/44-44-44-44/66-66-66-44\22-22-22-22/4-|
A|-2-2-22-22-------------------------------------------|
E|-----------------------------------------------------|

(So please don’t, please don’t, please don’t)
G|----------------------------------------------------------------------|
D|-----------022/44-44-44-44/66-66-66-44\22-22-22-22-3-(Hold last note)-| 
A|-2-2-22-22------------------------------------------------------------|
E|----------------------------------------------------------------------|


G|-----------------------------------------------------|
D|-----------022/44-44-44-44/66-66-66-44\22-22-22-22/4-| x2
A|-2-2-22-22-------------------------------------------|
E|-----------------------------------------------------|

Fades second time around to the end.		

Suggest correction new What's this?
You can suggest a correction to this tab. Community and Mods will review your correction and vote to approve or reject it.
comments
print report bad tab
1 comment total.
0 reply
kingfootpie 157 wrote on August 20 2009, 02:35 pm

way wrong

guest
You may want to rate the tab now too:
select rating
Please do not post tabs as comments. Select "correction" instead!