Oops, an error
Loading. Please wait.

In The Name Of Love tab

version 2
version 2

Whole song

1,083 views 1 this week
no commentswrite comment
1 2 3 4 5
3 more votes to show rating
add to favorites
×
Save as Personal and add changes to this tab that will be seen only by you. Learn more ›
×
You can save this tab as Personal to edit and correct it or add notes. All changes will be seen only by you. Learn more »
launch autoscroll
font size
0
reset
how to read this tab
guitar tuner
edit
Autoscroll
slow
fast
+/-
esc
set tempo
stop
Author
There's another version of tab before, credits to tompoole, thanks!

But we've revised it at some points, have fun!

tabbed by: Ivan Maulana and Luky Setyarini 

                        


                          In The Name Of Love


Intro:
|-------------------------------0-----------------------------------------|
|----3-3-----2-2-----3-3-----0h2------3-3-----2-2----5-5---4-4------------|
|----2-2-----0-0-----2-2--------------2-2-----0-0----3-3---2-2------------|
|----4-4-----2-2-----4-4--------------4-4-----2-2----5-5---4-4------------|X2
|---2---2--0----0---2---2--0-----0---2----2--0---0--3---3-2---2-----------|
|------------------ ------------------------------------------------------|

|-------------------------------------------------------------------------|
|----3-3-----2-2-------4-4-----2-2-------4-4-----2-2-------4-4-----2-2----|
|----4-4-----0-0-------4-4-----0-0-------4-4-----0-0-------4-4-----0-0----|
|----4-4-----2-2-------4-4-----2-2-------4-4-----2-2-------4-4-----2-2----| 
|---2---2--0----0-----2---2--0----0-----2---2--0----0-----2---2--0----0---|
|-------------------------------------------------------------------------|

|---------------0-------------------------------------------|
|----3-3-----0h2--------3-3-----2-2----5-5---4-4/-----------|
|----4-4----------------4-4-----0-0----3-3---2-2/-----------|
|----4-4----------------4-4-----2-2----5-5---4-4/-----------|
|---2---2--0-------0---2----2--0----0-3---3--2-2/-----------|
|-----------------------------------------------------------|

VERSE:

|------------------|
|----3-3-----2-2---|
|----2-2-----0-0---|
|----4-4-----2-2---| X6
|---2---2--0----0--|
|------------------|

|-------------------------------|
|---1-1----3-3------------4-4/--|
|---0-0----0-0------0-0---2-2/--|
|---2-2----4-4------0-0---4-4/--|
|-3----3--5---5-----2-2---2-2/--|
|-----------------3----3--------|


|-----------------------------------------------|
|----3-3-----2-2-------3-3-----2-2------5-5---4-|
|----2-2-----0-0-------2-2-----0-0------3-3---2-|
|----4-4-----2-2-------4-4-----2-2------5-5---4-|
|---2---2--0----0-----2---2--0----0----3---3--2-/
|-----------------------------------------------|

|--------------------------------|
|----3-3-----2-2----3-3----4-4-4-|
|----2-2-----0-0----2-2----2-2-2-|
|----4-4-----2-2----4-4----4-4-4-|
|---2---2--0----0--2---2---2-2-2-|
|--------------------------------|

Back to Verse

INTERLUDE:

|---------------------------------------------------2-2-2-2-2-3-2-|
|-----1-1----3-3----------8-8-----------------------4-4-4-4-4-5-4-|
|-----0-0----0-0---0-0----7-7----5-5----------------2-2-2-2-2-3-2-|
|-----2-2----4-4---0-0----9-9----5-5----------------4-4-4-4-4-5-2-|
|----3---3--5---5--2-2---7---7---7-7---7---5---3---22-2-2-2-2-3-2-|
|-----------------3---3---------5---------------------------------|

OUTRO:

|---3-3-3--2-2-2--3-3-3--2-2-2--3-x-x---2-x-x---2---------------2-|
|---5-5-5--4-4-4--5-5-5--4-4-4--5-x-x---4-x-x-----4-------------3-|
|---3-3-3--2-2-2--3-3-3--2-2-2--3-x-x---2-x-x--------2----------2-|
|---5-5-5--4-4-4--5-5-5--4-4-4--5-x-x---4-x-x-----------4-------4-|
|---3-3-3--2-2-2--3-3-3--2-2-2--3-x-x---2-x-x--------------2----2-|
|-----------------------------------------------------------------|



Songwriters: Estelle Levitt, Kenny Rankin
Performed by: Jason Mraz on NAMM 2010
http://www.youtube.com/watch?v=IATJhRjuj2Q&playnext_from=TL&videos=M2e9MY9cojk


What burns and glows without flame?
What lives and grows without rain?
What brings a smile that lasts for a little while
That makes me cry without shame?

How can you please me then torture
And tease me and do it in the name of love?

Don't you know how to be nice?
You'd leave me without thinking twice
Your wall has an oven when you want a little lovin'
And you go from fire to ice

How can you please me then torture
And tease me and do it in the name of love?

I'm comin', I'm a goin', is it rainin' or snowin'?
I got no way of knowin' your mind

You make me rise and fall
You make me stumble and crawl
So baby, get with it, you might as well admit it
Don't love your daddy at all

'Cause how can you please me then torture
And tease me and do it in the name of love?

You make me rise and fall
You make me stumble and crawl
So baby, get with it, you might as well admit it
Don't love your daddy at all

'Cause how can you please me then torture
And tease me and do it in the name of love?
Do it in the name of love, do it in the name of love
Suggest correction
Creating personal tab
Creating personal tab
You can edit any tab online and save it as your Personal.

You can edit, replace or remove any tab part or add personal notes – all changes will be seen only by you.

Personal tabs can be accessed anytime from any device, even offline.
Learn more »
Give kudos to tab author, rate the tab!
1 2 3 4 5
comments
print report bad tab
guest
You may want to rate the tab now too:
select rating
Wanna post a correction for this tab? Suggest correction