Oops, an error
Loading. Please wait.

Lucky Tab

version 1
version 1

Whole song

Interactive

Video

183,095 views 54 this week
2 commentsread comments
1 2 3 4 5
accurate
x 9
add to favorites
launch autoscroll
font size
0
reset
how to read this tab
guitar tuner
Autoscroll
slow
fast
+/-
esc
set tempo
stop
Help us to improve Ultimate-Guitar.com Take our survey!
×
Author
Jason Mraz - Lucky
NOTE: Not mine, have fun!


E|--------------------------------|--------------------------------|
B|--------------------------------|--------------------------------|
G|-0-------0-------0-------0------|-0-------0-----0----------------|
D|-2-------2-------2-------2------|-2-------2-----2-------2-----0--|
A|-3-------3-------3-------3------|-3-------3-------3-------3------|
E|--------------------------------|--------------------------------|

E|--------------------------------|--------------------------------|
B|-----------------------0---1-0--|--------------------------------|
G|-----0--------------------------|-2------------------------------|
D|-2------------------------------|-2-----2-------2-------3---2---3|
A|-3-------3-----3-------3--------|-0-------0-------0-----0--------|
E|--------------------------------|--------------------------------|

E|--------------------------------|--------------------------------|
B|--------------------------------|--------------------------------|
G|-----5---------------------5----|-0------------------------------|
D|-----------------------7-----7--|-0---------------------2-----0-2|
A|-5-----5-------5---------5------|--------------------------------|
E|--------------------------------|-3-------3-------1-------1------|

E|-----0--------------------------|--------------------------------|
B|-----------------------0-----3-1|-----------------------1-----0--|
G|-----------------------1-----1--|---------2----------------------|
D|-----------------------2-----2-2|--------------------------------|
A|-------------------------------0|-------0-------0-------0--------|
E|-0-------0-----0-------0--------|--------------------------------|

E|--------------------------------|--------------------------------|
B|--------------------------------|-----------------------1-----0--|
G|-5------------------------------|-0------------------------------|
D|---------------7----------------|-----0-2-----0-------0---------2|
A|-5-----5-------5-------5--------|--------------------------------|
E|--------------------------------|-3-------3-------3-----3--------|

E|-----0--------------------------|--------------------------------|
B|-1---1-----------------------3--|-1-----------------------3---1--|
G|-0---0-------------------0------|-2---------------------2-----2--|
D|-------------------------2------|-2---------------------2-----2--|
A|-3-------3-------3-------3------|-0-------0-------0-------0------|
E|--------------------------------|--------------------------------|

E|-------------------------------0|-----------------------0--------|
B|-----6-----------------------5-3|-----3-----------------3-----3--|
G|-7------------------------------|-0---------------------0--------|
D|-7-----------------------7------|--------------------------------|
A|-5-----5-------5-------5--------|--------------------------------|
E|--------------------------------|-3-------3-------1-------1------|

E|-0---------------------0--------|-----------------------0--------|
B|-0---0-----------------0---3---1|-----------------------1-----3-5|
G|-1---1-----------------1-------2|-----------------------------2-5|
D|-----0-------------------------2|-----------------------------2-7|
A|--------------------------------|-0-------0-----0-------0-------5|
E|-0-----0-------0-------0--------|--------------------------------|

E|--------------------------------|--------------------------------|
B|-------------------------------5|--------------------------------|
G|---------------5---------------7|-------7-------------- 4--------|
D|-----------------------------5--|-7-------------7-------3--------|
A|-------5-------5-------5--------|-5-----5-------5----------------|
E|--------------------------------|------------------------ 4------|

E|-----------------------0-----3--|--------------------------------|
B|-------------1-------3---------6|-------------5-3-------------0--|
G|---------2---------------------5|---------5-----------5----------|
D|-----2--------------------------|-3---3--------------------------|
A|-0---------------0--------------|-5------------------------------|
E|--------------------------------|--------------------------------|

E|-----------------------------3-1|-------------0-------0----------|
B|-----------------------0-------1|---------------3----------------|
G|---------0---0-------2---------0|---------0-----0-------------2--|
D|-----0--------------------------|-----2-----------0--------------|
A|--------------------------------|-3---------------2--------------|
E|-3---------------3--------------|--------------------------------|

E|--------------------------------|--------------------------------|
B|---------------------0-1--------|-3------------------------------|
G|---------2---2---2-----------2--|-5-------5---5-- 4---2-------0--|
D|-----2--------------------------|-----3-------------3------------|
A|-0-------------0----------------|-5------------------------------|
E|--------------------------------|--------------------------------|

E|--------------------------------|--------------------------------|
B|---------------------0----------|-------------0---------------0--|
G|-------------0-----------0------|---------0---------------0------|
D|---------0-------------------0--|-----0---------------0----------|
A|--------------------------------|--------------------------------|
E|-3---------------3--------------|-3---------------3--------------|

E|--------------------------------|--------------------------------|
B|-1-----------0-1-------------0--|-1-----------0---1---3---1---0--|
G|-0-------0---------------0------|-2-------2-----2-----2---2------|
D|-----2---------------2----------|-----2-----------2---2---2------|
A|-3------------------------------|-0------------------------------|
E|--------------------------------|--------------------------------|

E|--------------------------------|--------------------------------|
B|-------0------------------------|-------------0---------------0--|
G|-------------0-----------0------|---------0---------------0------|
D|-----2---------------2-------2--|-----0---------------0----------|
A|--------------------------------|--------------------------------|
E|-0---------------0--------------|-3---------------3--------------|

E|-------------------------------0|---------------0----------------|
B|-6-----5-------6---------5-----1|-------3-------1----------------|
G|-7-------7-------7--------------|-2-----2-------2----------------|
D|-7------------------------------|-------------2------------------|
A|-5---5---5---5---5---5---5---5--|-0---0-0-----0---0---0---0---0--|
E|--------------------------------|--------------------------------|

E|--------------------------------|--------------------------------|
B|-----------------3---1---3---3--|-5------------------------------|
G|-----------------0---0---0---0--|-7---7-------5------------------|
D|-----------------0---0---0---0--|-----7--------------------------|
A|--------------------------------|-5---5-5-----5-5-----5-5-----5--|
E|-3---3---3---3---3---3---3---3--|--------------------------------|

E|-------------------------------0|---------------0----------------|
B|-6-----5-------6---------5-----1|-------3-------1----------------|
G|-7-------7-------7--------------|-2-----2-------2----------------|
D|-7------------------------------|-------------2------------------|
A|-5---5---5---5---5---5---5---5--|-0---0-0-----0---0---0---0---0--|
E|--------------------------------|--------------------------------|

E|--------------------------------|--------------------------------|
B|-----------------3---1---3---3--|-5---------------------- 8------|
G|-----------------0---0---0---0--|-7---7-------5------------------|
D|-----------------0---0---0---0--|-----7--------------------------|
A|--------------------------------|-5---5-5-----5-5-----5-5-----5--|
E|-3---3---3---3---3---3---3---3--|--------------------------------|

E|--------------------------------|-0------------------------------|
B|-5---------------------- 8------|-1---3-------1------------------|
G|-7-------7-------5--------------|-2---2-------2------------------|
D|---------7-------7--------------|-----2-------2------------------|
A|-5---5---5---5---5---5-5-----5--|-0---0---0---0---0---0---0---0--|
E|--------------------------------|--------------------------------|

E|-----------------0--------------|-1------------------------------|
B|-3-----------3---------------3--|-------------3------------------|
G|-0-------0---------------0------|-------0-------------------- 4--|
D|-----0---------------0----------|-----0---------------0---3---3--|
A|--------------------------------|--------------------------------|
E|-3---------------3--------------|-3---------------3------ 4------|

E|-----------------------0-----3--|--------------------------------|
B|-------------1-------3---------6|-------------5-3-------------0--|
G|---------2---------------------5|---------5-----------5----------|
D|-----2--------------------------|-3---3--------------------------|
A|-0---------------0--------------|-5------------------------------|
E|--------------------------------|--------------------------------|

E|-----------------------------3-1|-------------0-------0----------|
B|-----------------------0-------1|---------------3----------------|
G|---------0---0-------2---------0|---------0-----0-------------2--|
D|-----0--------------------------|-----2-----------0--------------|
A|--------------------------------|-3---------------2--------------|
E|-3---------------3--------------|--------------------------------|

E|--------------------------------|--------------------------------|
B|---------------------0-1--------|-3------------------------------|
G|---------2---2---2-----------2--|-5-------5---5-- 4---2-------0--|
D|-----2--------------------------|-----3-------------3------------|
A|-0-------------0----------------|-5------------------------------|
E|--------------------------------|--------------------------------|

E|--------------------------------|--------------------------------|
B|---------------------0----------|-------------0---------------0--|
G|-------------0-----------0------|---------0---------------0------|
D|---------0-------------------0--|-----0---------------0----------|
A|--------------------------------|--------------------------------|
E|-3---------------3--------------|-3---------------3--------------|

E|-----------------------0-----3--|--------------------------------|
B|-------------1-------3---------6|-------------5-3-------------0--|
G|---------2---------------------5|---------5-----------5----------|
D|-----2--------------------------|-3---3--------------------------|
A|-0---------------0--------------|-5------------------------------|
E|--------------------------------|--------------------------------|

E|-----------------------------3-1|-------------0-------0----------|
B|-----------------------0-------1|---------------3----------------|
G|---------0---0-------2---------0|---------0-----0-------------2--|
D|-----0--------------------------|-----2-----------0--------------|
A|--------------------------------|-3---------------2--------------|
E|-3---------------3--------------|--------------------------------|

E|--------------------------------|--------------------------------|
B|---------------------0-1--------|-3------------------------------|
G|---------2---2---2-----------2--|-5-------5---5-- 4---2-------0--|
D|-----2--------------------------|-----3-------------3------------|
A|-0-------------0----------------|-5------------------------------|
E|--------------------------------|--------------------------------|

E|--------------------------------|--------------------------------|
B|---------------------0----------|-------------0---------------0--|
G|-------------0-----------0------|---------0---------------0------|
D|---------0-------------------0--|-----0---------------0----------|
A|--------------------------------|--------------------------------|
E|-3---------------3--------------|-3---------------3--------------|

E|--------------------------------|--------------------------------|
B|-1-----------0-1-------------0--|-1-----------0---1---3---1---0--|
G|-0-------0---------------0------|-2-------2-----2-----2---2------|
D|-----2---------------2----------|-----2-----------2---2---2------|
A|-3------------------------------|-0------------------------------|
E|--------------------------------|--------------------------------|

E|--------------------------------|--------------------------------|
B|-------0------------------------|-------------0---------------0--|
G|-------------0-----------0------|---------0---------------0------|
D|-----2---------------2-------2--|-----0---------------0----------|
A|--------------------------------|--------------------------------|
E|-0---------------0--------------|-3---------------3--------------|

E|--------------------------------|--------------------------------|
B|-1-----------0-1-------------0--|-1-----------0---1---3---1------|
G|-0-------0---------------0------|-2-------2-----2-----2---2------|
D|-----2---------------2----------|-----2-----------2---2---2------|
A|-3------------------------------|-0------------------------------|
E|--------------------------------|--------------------------------|

E|--------------------------------|-------------------------0------|
B|-0-------0---------------------0|---3-----------------3----------|
G|---------------0-----------0----|---------------0----------------|
D|-----2-----------------2--------|---------0----------------------|
A|--------------------------------|--------------------------------|
E|-0---------------0--------------|---3----------------------------|

E|--------------------------------|--------------------------------|
B|-3------------------------------|---------------1----------------|
G|-------0------------------------|---------------0----------------|
D|-----------------0--------------|-------------2------------------|
A|--------------------------------|-------------3------------------|
E|--------------------------------|--------------------------------|
Suggest correction
comments
print report bad tab
2 comments total.
0 reply
cheesemaon 51 wrote on March 12 2016, 11:52 pm

nothing of this resembles the actual song... it's pretty much a mess of random tabs that make no musical sense at all

0 reply
sirluke 10 wrote on August 22 2016, 07:50 am

its fingerstyle tab. if you dont play fingerstyle technique, you cant play this tab. its very accurate though.

guest
You may want to rate the tab now too:
select rating
Wanna post a correction for this tab? Suggest correction