Oops, an error
Loading. Please wait.

Mr Curiosity chords

version 1
version 1

Whole song

Interactive

131,247 views 39 this week
9 commentsread comments
1 2 3 4 5
x 14
add to favorites
×
Save as Personal and add changes to this tab that will be seen only by you. Learn more ›
×
You can save this tab as Personal to edit and correct it or add notes. All changes will be seen only by you. Learn more »
launch autoscroll
font size
0
reset
transpose
0
reset
simplify chords
display chords
guitar tuner
edit
Autoscroll
slow
fast
+/-
esc
set tempo
stop
Strumming
There is no strumming pattern for this song yet. and get +5 IQ
    _________________
   / Jason Mraz     /  I think this is song is an honest confession on how
  / Mr. Curiosity  /  difficult love is to find, and how painful it is when
 / Mr. A-Z        /  you're in need of it, and Mraz really sounds like he is.
/________________/  It's also questions about whether to look for love at all.

Capo on 3rd fret.
First is the actual chord name,
and below in brackets is the chord name without capo:

     Bb   Dm7   Fm   Cm   Ebm   F   Eb   Gm   D7   Gm9   Gb   Fadd11
    (G)  (Bm7) (Dm) (Am) (Cm)  (D) (C)  (Em) (B7) (Em9) (D#) (Dadd11)
e:---3-----2----1----0-----3----2---0----0----2-----0------------------:
B:---0-----3----3----1-----4----3---1----0----0-----3----4------3------:
G:---0-----2----2----2-----5----2---0----0----2-----0----3------0------:
D:---0-----4----0----2-----5----0---2----2----1-----4----5------4------:
A:---2-----2---------0-----3--------3----2----2-----2----6------5------:
E:---3-----------------------------------0----------0------------------:



 Intro (verse):
| Bb | Dm7 | Fm | Cm |

| Ebm | Bb | Cm | F |


 2x Verse

 Chorus:
| Eb | Bb | Dm7 | Gm F |

| Eb | Bb | D7 | D7 |


 2x Verse

 Chorus


 Bridge:
| Gm9 | Gb | Gm9 | Gb |

| Ebm | Bb | Ebm | Fadd11 | Fadd11 |


 1x Verse (opera)

 2x Chorus, end on Gm9




 Piano Intro arranged for Guitar (still capo on 3rd fret):
*******************************************************************************
* This is the link for my guitar pro version of it:                           *
* www.ultimate-guitar.com/tabs/j/jason_mraz/mr_curiosity_intro_guitar_pro.htm *
*******************************************************************************

  Bb                Dm7               Fm                 Cm
|-----------3---2-|-----------------|-1-0------------0-|-----------------|
|-----0-----------|-------3---------|-----3------------|---3-1-----------|
|-0-2---0---------|-----4-2---------|-------2--(2)(2)--|-------2---------|
|---------0---0---|---4-------------|-0----------------|-----------------|
|-----------------|-2---------------|------------------|-0-----------2---|
|-3---------------|-----------------|------------------|-----------------|

  Ebm                Bb                Cm                F
|-3--------------3-|-----------------|-----------3---2-|-------10--------|
|---4-3------------|---3-------------|---------3-------|-----3-10--------|
|-------5----------|-----5-4---------|-2-4-5-----------|---2---11--------|
|----------(5)(5)--|-----------------|-------2---------|-0---------------|
|-3----------------|-----------------|-0-----------3---|-----------------|
|------------------|-3---------------|-----------------|-----------------|



Hey Mr. Curiosity
Is it true what they've been saying about you?
Are you killing me?
You took care of the cat already
And for those who think it's heavy
Is it the truth or is it only gossip?

Call it mystery or anything
Just as long as you'd call me, I'll sent the message on
Did you get it when I left it?
See, this catastrophic event
It wasn't meant to mean no harm
But to think there's nothing wrong is a problem

I'm looking for love this time
Sounding hopeful but it's making me cry
Love is a mystery
Mr. Curious, come back to me

Mr. Waiting, ever patient
Can't you see that I'm the same the way you left me?
In a hurry to spell check me
And I'm underlined already
In envy green, in pencil red
And I've forgotten what you've said
Will you stop working for the dead and return?

Mr. Curious
Well, I need some inspiration
It's my birthday and I cannot find no cause for celebration
The scenario is grave
But I'll be braver when you save me
From this situation laden with hearsay

I'm looking for love this time
Sounding hopeful but it's making me cry
Love is a mystery
Mr. Curiosity be Mr. Please do come and find me
Find me

I'm looking for love this time
Sounding hopeful but it's making me cry
Trying not to ask why
This love is a mystery
Mr. Curiosity be Mr. Please do come and find me

Love is blinding when your timing's never right
Oh, who am I to beg for difference
Finding love in just an instant
Well, I don't mind
At least I tried
Well, I tried
I tried



------------------------------------------------------------------------------
 25th /November /08
 Just mail me at Maitinin@gmail.com with questions, comments and corrections!
------------------------------------------------------------------------------



 " Maitinin writing here - the author of this tab.

   The past 11 years, I have generated 10,318,000 views and 815 top-rated tabs for this site.
   If you want to support an eager contributor like me, check out my own site:


   _____  http://www.PlayLikeTheGreats.com  _____


   Here I will continue to upload and improve my transcriptions.

   Best regards,
   Maitinin

   July, 2015 "

            
            
Suggest correction
Creating personal tab
Creating personal tab
You can edit any tab online and save it as your Personal.

You can edit, replace or remove any tab part or add personal notes – all changes will be seen only by you.

Personal tabs can be accessed anytime from any device, even offline.
Learn more »
comments
print report bad tab
9 comments total. Showing first comments.
+1 reply
AureliusMarcus 20 Jan 08, 2009 05:36 AM

If anyone wants to play the intro in the original key here's the transcribed version of this tab.

Bb Dm7 Fm

E||-----------------6-----5--|---------------|--4--3--1----------3--|
B||--------------------------|------------6--|-----------1--(1)-----|
G||-----5--7-----------------|---------7--5--|----------------------|
D||--8--------8--------------|------7--------|--3-------------------|
A||--------------8-----8-----|--5------------|----------------------|
E||--6-----------------------|---------------|----------------------|

Cm Ebm Bb

-----------------|--6-----------------6--|--------------|
-----6--4--------|------7--6-------------|-----6--------|
-----------5-----|------------8----------|--------8--7--|
-----------------|---------------(8)-----|--------------|
--3-----------5--|--6--------------------|--------------|
-----------------|-----------------------|--6-----------|

Cm F
E E E E E E E E E E E E
-----------------6-----5--|--------1--13--|-----||
--------4-----6-----------|-----1-----13--|-----||
--5--7--------------------|-----------14--|-----||
-----------5--------------|--3------------|-----||
--3-----------------6-----|---------------|-----||
--------------------------|---------------|-----||

0 reply
Maitinin 19,543 Jan 08, 2009 10:06 AM

haha, this is just an export of my own pro-tab, which is linked to :P
But this is almost impossible to play in real life...

+1 reply
b-linz117 50 Jul 03, 2009 08:28 AM

It would be much easier to play if you had just given the chord names relative to the capo (ex. Just write "G" instead of "Bb").

guest
You may want to rate the tab now too:
select rating
Wanna post a correction for this tab? Suggest correction