Oops, an error
Loading. Please wait.

Prettiest Friend tab

version 2
version 2

Whole song

  • Because the song is on plucking and I made a tab for the song.
431 views 12 this week
no commentswrite comment
1 2 3 4 5
2 more votes to show rating
add to favorites
×
Save as Personal and add changes to this tab that will be seen only by you. Learn more ›
×
You can save this tab as Personal to edit and correct it or add notes. All changes will be seen only by you. Learn more »
launch autoscroll
font size
0
reset
how to read this tab
guitar tuner
edit
Autoscroll
slow
fast
+/-
esc
set tempo
stop
Author
Difficulty
About this tab version
Because the song is on plucking and I made a tab for the song. Was this info helpful? Yes No
This is my version of Prettiest Friend by Jason Mraz :D

CHORDS
   C    G*    Am   Em   F    Dm  G
e|-0----0----0----0----1----1----3----|
B|-1----1----1----0----1----3----3----|
G|-0----0----2----0----2----2----0----|
D|-2----0----2----2----3----0----0----|
A|-3----0----0----2----3----0----2----|
E|------3----0----0----1----0----3----|

VERSE
   C                       G*                      Am                     Em
|-----------------------|-----------------------|----------------------|-----------------------|
|-----1--------1--------|-----1--------1--------|----1--------1--------|-----0--------0--------|
|--------0--------0-----|--------0--------0-----|-------2--------2-----|--------0--------0-----|
|-----------2--------2--|-----------0--------0--|----------2--------2--|-----------2--------2--|
|--3--------------------|-----------------------|--0-------------------|--2--------------------|
|-----------------------|--3--------------------|----------------------|-----------------------|


   F                       C                      G*                        (only on the 1st part of the verse)
|-----------------------|-----------------------|---------------------------|-0-----------------------------|
|-----1--------1--------|-----1--------1--------|----0--------1--------3--3-|-----3--1--0-------------------|
|--------2--------2-----|--------0--------0-----|-------0--------0----------|-------------------------------|
|-----------3--------3--|-----------2--------2--|----------0--------0-------|-------------------------------|
|-----------------------|--3--------------------|---------------------------|-------------------------------|
|--1--------------------|-----------------------|--3------------------------|-------------------------------|

CHORUS

   Dm                      G                       C                           Am
|-----1--------1--------|-----3--------3--------|------------------------0--|--------------------|
|--------3--------3-----|--------3--------------|-----1--------1-----3------|--0--1--3-----------|
|-----------2--------2--|-----------0-----------|--------0--------0---------|--2-----------------|
|--0--------------------|-----------------------|-----------2---------------|--------------------|
|-----------------------|--------------------0--|--3------------------------|--------------------|
|-----------------------|--3--------------3-----|---------------------------|--------------------|

 Dm               G                    C                       
|--1--3--1--0--|--------1--0--------|--------------------------|
|--3--3--3--0--|--3--3--------3--1--|-----1--------1--------1--|
|--------------|--------------------|--------0--------0--------|
|--0-----------|--------------------|-----------2--------2-----|
|--------------|--------------------|--3-----------------------|
|--------------|--3-----------------|--------------------------|


LYRICS:
C                          G*
This is what I look like today 
         Am                        Em
And I’m trying not to pull out my hair 
      F                               C                             G*
I’m trying hard to grow it ‘cause I’m far too shy to show it back there 
        C                         G*
That’s probably why I like wearing hats 
           Am                           Em
There’s no denying I’m deferring the facts 
F                             C
Avoiding confrontation lacks tact in a situation 
G*                      
Behind every line is a lesson yet to learn 


Dm          G           C                           Am
But if you ask me, the feeling that I’m feeling is overwhelming 
    Dm              G                     C
And oh, it goes to show, I’ve so much to know 


  C                           G*
I wrote this for my prettiest friend 
          Am                       Em
But while trying not to prove that I care
F                       C                       G*
Trying not to make all my moves in one motion and scare her away 
     C                            G*
Well she can't see she's making me crazy now 
  Am                            Em
I don't believe she knows she's amazing how 
           F                    C
She has me holding my breath, so I’d never guess 
           G*                   
That I’m a none such unsuitable, suited for her 


Dm          G           C                             Am
But if you ask me, the feeling that I’m feeling is complimentary 
    Dm             G         C                      Am
And oh, it goes to show, the moral of the story is boy loves girl 
        Dm                           G                  C
And oh-whoa love, the way that it unfolds is yet to be told 


            Am          Em                   F                       C
I know that I should be brave, ‘cause even pretty can be seen by the blind 
           Am         Em              F                           G
I know that I cannot wait, until the day we finally learn how to find each other,
           
Redefining open minds


Dm          G           C                           Am
And if you ask me, the feeling that I’m feeling is overjoyed 
           Dm                G
And it's golden; it goes to show then,
     C                             Am
The ending of this song should be left alone 
     Dm                G                           C
And whoa-oh love, the way it unfolds is yet to be told

            
            
Suggest correction
Creating personal tab
Creating personal tab
You can edit any tab online and save it as your Personal.

You can edit, replace or remove any tab part or add personal notes – all changes will be seen only by you.

Personal tabs can be accessed anytime from any device, even offline.
Learn more »
Give kudos to tab author, rate the tab!
1 2 3 4 5
comments
print report bad tab
guest
You may want to rate the tab now too:
select rating
Wanna post a correction for this tab? Suggest correction