Oops, an error
Loading. Please wait.

Tonight Not Again Chords

10,684 views 6 this week
no commentswrite comment
1 2 3 4 5
accurate
x 4
add to favorites
launch autoscroll
font size
0
reset
transpose
0
reset
simplify chords
display chords
guitar tuner
Autoscroll
slow
fast
+/-
esc
set tempo
stop
Help us to improve Ultimate-Guitar.com Take our survey!
×
Author
Capo
3rd fret
    _________________________________
   / Jason Mraz                     /
  / Tonight, Not Again             /
 / Waiting for My Rocket to Come  /
/________________________________/

In this song there are just 5 five chords. Most of the time it's just the
picking pattern being repeated. Therefore I think it's easier to just refer
to the picking pattern as one round.

 *Capo on 3rd fret
 The picking pattern:                      Chords:
  Gm(add9)           Absus2                Gm(add9)  Absus2     Bb   Ab   Eb
|------------------|------------------|  :------------------ ---3----1----3----:
|------------------|------------------|  :----0--------0---- ---0----1----1----:
|-------0---0------|-------0---0------|  :----0--------0---- ---0----2----0----:
|-------4---4------|-------5---5------|  :----4--------5---- ---0----3----2----:
|-----2------------|-----3------------|  :----2--------3---- ---2----3----3----:
|-0----------------|-1----------------|  :----0--------1---- ---3----1---------:



 Intro: 4 rounds

 Verse: 4 rounds

 Interlude: 2 rounds

 Verse: 6 rounds



 Chorus:
| Bb | Bb | Ab | Eb |

| Bb | Ab | Eb |



 Interlude: 2 rounds

 Verse: 4 rounds


 Chorus:
| Bb | Bb | Ab | Eb |

| Bb | Ab | Eb |

     [break on 3]
| Bb | Bb |


 Bridge:
||: Ab | Eb | Bb :||

               [break on 2]
| Ab | Eb | Bb | Bb |

| Ab | Eb | Bb | Bb |

| Ab | Eb |


 Interlude-Verse: 8 rounds


 Chorus:
||: Bb | Bb | Ab | Eb :||

| Bb | Ab | Eb |


 Outro: 8 rounds (the full picking chords are strummed here)
        end on Absus2



------------------------------------------------------------------------------
 15th /March /09
 Just mail me at Maitinin@gmail.com with questions, comments and corrections!
------------------------------------------------------------------------------



 " Maitinin writing here - the author of this tab.

   The past 11 years, I have generated 10,318,000 views and 815 top-rated tabs for this site.
   If you want to support an eager contributor like me, check out my own site:


   _____  http://www.PlayLikeTheGreats.com  _____


   Here I will continue to upload and improve my transcriptions.

   Best regards,
   Maitinin

   July, 2015 "
Suggest correction
comments
print report bad tab
guest
You may want to rate the tab now too:
select rating
Wanna post a correction for this tab? Suggest correction