Oops, an error
Loading. Please wait.

Traveler Tab

version 2
version 2

Intro

Whole song

5,361 views 3 this week
3 commentsread comments
1 2 3 4 5
accurate
x 8
add to favorites
launch autoscroll
font size
0
reset
how to read this tab
guitar tuner
Autoscroll
slow
fast
+/-
esc
set tempo
stop
Help us to improve Ultimate-Guitar.com Take our survey!
×
Author
Difficulty
novice
Live intro to "Make it Mine"

e|-------------------------------10----------------------------|
B|-(3)-5--7--8--8--10--12---12--------7----7--8--5---3---5-----|
G|-------------------------------------------------------------| 
D|-------------------------------------------------------------| x 3
A|-(2)-3--5--7--7--9---10---10---9----5----5--7--3---2---3-----|
E|-------------------------------------------------------------|

e|-------------------------10--12--12--10--------12--10--8---------------------------|
B|-5--7--8--8--10--12--12------------------12---------------12--10--8--5---3---5-----|
G|-----------------------------------------------------------------------------------| 
D|-----------------------------------------------------------------------------------| x 1, 
A|-3--5--7--7--9---10--10--9---10--10--9---10----10--9---7--10--9---7--3---2---3-----|
E|-----------------------------------------------------------------------------------|
then back to 1st line once
Suggest correction
comments
print report bad tab
3 comments total.
0 reply
from--hell 10 wrote on July 10 2010, 02:56 pm

I've been obsessed with this song for a long time. Thank you VERY MUCH for getting the tab!! A perfect work! FIVE STARS!

0 reply
bvpsc0179 10 wrote on December 27 2014, 07:24 pm, edited at 07:25 pm

in the end of the 2nd line it should be---------------------- 12--10--8--7--5--3--5-------------------------------------------- 10---9--7--5--3--2--3----------------------,
not
------------------12--10--8--5--3--5------------------------------------10---9--7--3--2--3------------------

0 reply
bvpsc0179 10 wrote on December 27 2014, 07:26 pm

in the end of the 2nd line it should be
----------------------
12--10--8--7--5--3--5
----------------------
----------------------
10---9--7--5--3--2--3
----------------------

guest
You may want to rate the tab now too:
select rating
Please do not post tabs as comments. Select "correction" instead!