Oops, an error
Loading. Please wait.

When We Die Years Go Fast Chords

6,706 views 3 this week
4 commentsread comments
1 2 3 4 5
excellent!
x 5
add to favorites
launch autoscroll
font size
0
reset
transpose
0
reset
simplify chords
display chords
guitar tuner
Autoscroll
slow
fast
+/-
esc
set tempo
stop
Help us to improve Ultimate-Guitar.com Take our survey!
×
Author
Difficulty
Capo
intermediate
3rd fret
----------------------------------------------------------------------------
          When We Die (Years Go Fast) - Jason Mraz & Raining Jane
----------------------------------------------------------------------------

Tabbed by: stephenz82
Email: stephenz82@hotmail.com

Tuning:Standard

Capo 3rd fret
All chords relative to capo


Chords:

    C/G  Em(1)   F     G     Fm    Am    Dm6  Em(2)  Am/B    
e|---0-----0-----1-----3-----1-----0-----0-----0-----0----|
B|---1-----0-----1-----0-----1-----1-----3-----5-----1----|
G|---0-----0-----2-----0-----1-----2-----2-----4-----2----|
D|---2-----2-----3-----0-----3-----2-----3-----0-----0----|
A|---3-----2-----3-----2-----3-----0-----2-----2-----2----|
E|---3-----0-----1-----3-----1-----x-----0-----3-----x----|


(Fig. 1)
       h p        
e|-------------------|
B|-------------------|
G|-------------------|
D|----0-2-0----------|
A|-------------3--2--|
E|-------------------|


(Fig. 2)
             
e|---------------|
B|---------------|
G|---------------|
D|---------------|
A|-------0--2----|
E|----3----------|






Intro   (C/G)

e|-------------------------------------|
B|-------1--1-----1--1-----1--1--------|
G|-------0--0-----0--0-----0--0--------|
D|-------2--2-----2--2-----2--2--------|
A|----3-----------------3--------------|
E|-------------3------------------3----|




C/G
When we die
               Em(1)
Is it just like sleeping?
         F                    Fm             C/G    G
Does the light mean that it's light like in air?
       C/G                       Em(1)
Will I dream? Will I get to meet Jesus?
            F           Fm          C/G   (Fig. 1)
Or like the Lama will I come right back?


Am       Em(1)           F   Fm            C/G    G
Years go fast, live each day like it's the last
Am       G          C/G
Need not waste time asking
Dm6        Em(2)            Am  Am/B    F
Why? in my life, no holding back


       C/G            Em(1)
Like a whale with his song
                F           Fm         C/G     G
He sings of the memories of long days gone
      C/G     Em(1)         F  Fm  C/G   (Fig. 1)
So do I, sing along, I'll remember you


Am       Em(1)    
Years go fast
            F   Fm  C/G  G
I'm already looking back at this
Am    G            C/G
Me, I know I won't last
             Dm6               Em(2)
Cause when I cry, I don't just cry
          Am  Am/B    F
I fold in half


        C/G            Em             F Fm C/G G
You are loved, you are loved, you are lo_______ved 
        C/G            Em             F Fm C/G (Fig. 2)
You are loved, you are loved, you are lo_______ved 



Bridge (Instrumental)
                                          
|| C/G | C/G | Em(1) | Em(1) | F | Fm | C/G | C/G , G |
 
 | Am , Am/B | C/G | Dm6 | Em(2) | Am , Am/B | F ||


          C/G        Em(1)
There's a fear about leaving here
        F  Fm           C/G   G
And the devil you will find 
       C/G                        Em(1)
But if love, if love is all there ever was
            F            Fm    C/G   (Fig. 1)
There'll be peace on the other side


Am       Em(1)
Years go fast
          F    Fm           C/G  G
Live each day like it's the la___st
Am       G      C/G
Me, I'll go out dancing
             Dm6                   Em(2)
Cause when I die, I know I'm gonna fly
                Am  Am/B    F
Into an angel's hands


        C/G            Em             F Fm C/G G
You are loved, you are loved, you are lo_______ved 
        C/G            Em             F Fm C/G G
You are loved, you are loved, you are lo_______ved 
        F  Fm    C/G
You are lo_______ved





************************************

| h   hammer-on
| p   pull-off

************************************
Suggest correction
comments
print report bad tab
4 comments total. Showing first comments.
0 reply
g2k2001 10 wrote on April 14 2012, 04:38 pm

capo on 2nd, other than that good job!

0 reply
g2k2001 10 wrote on July 28 2012, 02:29 pm

sorry capo 3rd is correct!

0 reply
JesseMercArt 10 wrote on April 26 2013, 08:09 pm

Thank you so much for posting this.

guest
You may want to rate the tab now too:
select rating
Please do not post tabs as comments. Select "correction" instead!