Oops, an error
Loading. Please wait.

Who Needs Shelter Chords

version 2
version 2

Whole song

Interactive

6,678 views 1 this week
no commentswrite comment
1 2 3 4 5
please rate
add to favorites
launch autoscroll
font size
0
reset
transpose
0
reset
simplify chords
display chords
guitar tuner
Autoscroll
slow
fast
+/-
esc
set tempo
stop
Help us to improve Ultimate-Guitar.com Take our survey!
×
Author
Capo
2nd fret
    _________________________________
   / Jason Mraz                     /
  / Who Needs Shelter              /
 / Waiting for My Rocket to Come  /
/________________________________/

 In this song there is 1 picking pattern and 4 strummed chords.
 The picking pattern is played in the verses and interludes. Notice that
the pattern for the E and the C#m7 is excactly the same, as these are two
very similar chords. You can also just play the picking pattern as strummed
chords, those would be the first 3 chords I've added in the chord chart.
 The strummed chords are played in the chorus and bridge. Those are the
next 4 chords in the chord chart.
 Capo on 2nd fret

 Picking Pattern:
  E & C#m7                   Dmaj9
|----2---0-------------0---|----------------------------|
|-------------3----0h3---0-|----0-----------0-----------|
|--------------------------|----2---0---0h2---2p0-----0-|
|-4----4----4----4---------|----0-----------------0-----|
|--------------------------|-3----3----3------------3---|
|--------------------------|----------------------------|

 Chords:
     E   Dmaj9  C#m7     C#m7   F#    Bm   F#m
e:---2-----------2---- ---2-----0-----0-----0----:
B:---3-----0-----3---- ---0-----0-----1-----0----:
G:---2-----2-----2---- ---2-----1-----2-----0----:
D:---4-----0-----4---- ---0-----2-----2-----2----:
A:--(5)----3----(2)--- ---2-----2-----0-----2----:
E:-------------------- ---------0-----------0----:



 Intro/Interlude:
| E | Dmaj9 | C#m7 | Dmaj9 |


 Verse:
| E | Dmaj9 | C#m7 | Dmaj9 |

| E | Dmaj9 |



 Chorus:
| C#m7 | F# | C#m7 | F# |

| C#m7 | F# | C#m7 | F# |


 Interlude


 Verse:
| E | Dmaj9 | C#m7 | Dmaj9 |

| E | Dmaj9 | C#m7 | Dmaj9 |


 Chorus


 Bridge:
| Bm | F# | Bm | F# |

| Bm | F# | F#m | F#m |


 Guitar Solo (Interlude):
  E                             Dmaj9
|-----------------------------|----------------------------|
|-----------------------10-12-|-10p9-----------------------|
|---------------------9-------|------11-11~~~-------9-11---|
|---------7s9----9s11---------|------------------11------9s|
|-----------------------------|----------------------------|
|-----------------------------|----------------------------|

  C#m7                          Dmaj9
|-----------------------------|----------------------------|-------|
|-----------------------------|----------------------------|-------|
|----9------------------------|----------------------------|-------|
|s11---11--11~~~----9--7-6----|----6-----------------------|-------|
|--------------------------9--|-9----9~~~-----7--5--4-2-0--|-------|
|-----------------------------|----------------------------|-(4)---|



 Outro-Verse:
| E | Dmaj9 | C#m7 | Dmaj9...



------------------------------------------------------------------------------
 9th /March /09
 Just mail me at Maitinin@gmail.com with questions, comments and corrections!
------------------------------------------------------------------------------



 " Maitinin writing here - the author of this tab.

   The past 11 years, I have generated 10,318,000 views and 815 top-rated tabs for this site.
   If you want to support an eager contributor like me, check out my own site:


   _____  http://www.PlayLikeTheGreats.com  _____


   Here I will continue to upload and improve my transcriptions.

   Best regards,
   Maitinin

   July, 2015 "
Suggest correction
What's this?
You can suggest a correction to this tab. Community and Mods will review your correction and vote to approve or reject it.
comments
We did not receive enough feedback on this tab! Please rate:
print report bad tab
1 2 3 4 5
guest
You may want to rate the tab now too:
select rating
Please do not post tabs as comments. Select "correction" instead!