Oops, an error
Loading. Please wait.

You Fuckin Did It Tab

version 1
version 1

Whole song

11,284 views 3 this week
no commentswrite comment
1 2 3 4 5
accurate
x 12
add to favorites
launch autoscroll
font size
0
reset
how to read this tab
guitar tuner
Autoscroll
slow
fast
+/-
esc
set tempo
stop
Help us to improve Ultimate-Guitar.com Take our survey!
×
Author
Attempting to figure this song out by ear and playing it all the way to the end is
a victory in itself and it feels fckn awesome. Enjoy!
Here is a link to the song for strumming purposes... tricky stuff...
http://www.youtube.com/watch?v=grK2IrVKylY

Standard tuning, no capo
INTRO
e|---------------------------------------------------------------------------|
B|---------------------------------------------------------------------------|
G|---------------------------------------------------------------------------|
D|---------------------------------------------------------------------------|
A|-------------------------------10-10-10-10--10-10-10-10-10--10-10-10-10-10-|
E|-7-7-7-7--7-7-7-7-7--7-7-7-7-----------------------------------------------|

A|-9-9-9-9--9-9-9-9-9--9-9-9-9-9-----------------------|
E|-------------------------------7-7-7-7--7-7-7-7-7-7--| X2

TRANSITION INTO CHORDS!! (you can play the chords however you feel is right)
Verses and chorus.
e|-------x-5-5-5-5--5-5-5-5-5--5-5-5-5--10--10-10-10-10-10-10-10-10-10-|
B|-------x-5-5-5-5--5-5-5-5-5--5-5-5-5--12--12-12-12-12-12-12-12-12-12-|
G|-------x-5-5-5-5--5-5-5-5-5--5-5-5-5--10--10-10-10-10-10-10-10-10-10-|
D|-------x-5-5-5-5--5-5-5-5-5--5-5-5-5--12--12-12-12-12-12-12-12-12-12-|
A|-------x-7-7-7-7--7-7-7-7-7--7-7-7-7--10--10-10-10-10-10-10-10-10-10-|
E|-5-6-7-x-5-5-5-5--5-5-5-5-5--5-5-5-5--x---x--x--x--x--x--x--x--x--x--|

e|-----9--9--9--9--9---9--9--9--9--9---9--9--9--9------7--5-5-5-5-5--------|
B|-----10-10-10-10-10--10-10-10-10-10--10-10-10-10-----7--5-5-5-5-5--------|
G|-----9--9--9--9--9---9--9--9--9--9---9--9--9--9------7--5-5-5-5-5--------|
D|-----11-11-11-11-11--11-11-11-11-11--11-11-11-11-----7--5-5-5-5-5--------|
A|-7/9-9--9--9--9--9---9--9--9--9--9---9--9--9--9------9--7-7-7-7-7--------|
E|-----x--x--x--x--x---x--x--x--x--x---x--x--x--x--5/7-7--5-5-5-5-5--7-7/0-|

BRIDGE TO CHORUS
pretty much the same thing as the verse but ending in
e|-3~----2--2-2-2-2-22-2-2-2-2-22--|
B|-3~----2--2-2-2-2-22-2-2-2-2-22--|
G|-4~----3--3-3-3-3-33-3-3-3-3-33--|
D|-5~----4--4-4-4-4-44-4-4-4-4-44--|
A|-5~----4--4-4-4-4-44-4-4-4-4-44--|
E|-3~----2--2-2-2-2-22-2-2-2-2-22--|
instead of the Bm7 and the slidey
Then it goes right back into the verse chords :)

Have fun!

ps. I still plan on updating this for more accurate chord progressions because i know 
that Mraz plays a lot throughout the song. This is just the basic skeleton for now for 
easy improv rhythm and just singing it out!
Suggest correction
What's this?
You can suggest a correction to this tab. Community and Mods will review your correction and vote to approve or reject it.
comments
print report bad tab
guest
You may want to rate the tab now too:
select rating
Please do not post tabs as comments. Select "correction" instead!