Oops, an error
Loading. Please wait.

You Make Me High Tab

version 2
version 2

Whole song

16,786 views 1 this week
2 commentsread comments
1 2 3 4 5
excellent!
x 3
add to favorites
launch autoscroll
font size
0
reset
how to read this tab
guitar tuner
Autoscroll
slow
fast
+/-
esc
set tempo
stop
Help us to improve Ultimate-Guitar.com Take our survey!
×
Difficulty
Capo
novice
2nd fret
Jason Mraz - You make me high

Capo on 2nd fret.

 ( ) alternative notes
 x - Punch and strangle. - Basically, hit all the strings with your fingertips
 . - just strangle. 

To make it easy, I've made this to see which fingers who should be playing which strings.
It's not necessary to play like this, but I do recommend it!

|- 1st - little  finger
|- 2nd - ring    finger
|- 3th - middle  finger
|- 4th - index   finger
|- 5th - thumb
|- 6th - thumb

The thumb plays the bassline, while all the other fingers play the rest.

Part 1 - Intro
|---------7---------------------------------------------------------|
|-----------------0-------------------0------3-------------3-----3--|
|---------0-------0------2-------------------0------2------2-----2--|
|-2-----4------2-------1--------4---4------2------1------2----2-----|
|-----5------3-------2--------2---5------3------2-------------------|
|---------------------------0--------------------------0------------|


PART 2
|---------(x)---------0--x-------------x------------(x)-|
|-------3--x----------3--x---------(0)-x-----------3-x--|
|-------0--x----------0--x----------2--x-----------2-x--|
|-------4--x----------2--x----------1--x-----------2-x--|
|-0--5-----x-----0--3----x----0--2-----x-----2-0-----x--|
|----------x-------------x-------------x---------0---x--|
                                            **********
                                            Played weak!
PART 3
|---------(x)-(x)---------0-(x)0(x)-----------x-----------------(x)--(x)-|
|-------3--x-3-x----------3--x-3-x--------(0)-x-(0)------------3-x-3--x--|
|-------0--x-0-x----------0--x-0-x---------2--x--2-------------2-x-2--x--|
|-------4--x-4-x----------2--x-2-x---------1--x--1-------------2-x-2--x--|
|-0--5-----x-5-x-----0--3----x-3-x---0--2-----x--2---2-0---------x----x--|
|----------x---x-------------x---x------------x----------3-2-0---x-0--x--|

Repeat part 3 - 2 times.

PART 4
|---------(x)-(x)---------0-(x)0(x)-----------x-----------------------|
|-------3--x-3-x----------3--x-3-x--------(0)-x-(0)-------------3.--x-|
|-------0--x-0-x----------0--x-0-x---------2--x--2--------------2.--x-|
|-------4--x-4-x----------2--x-2-x---------1--x--1--------------2.--x-|
|-0--5-----x-5-x-----0--3----x-3-x---0--2-----x--2---2-0------------x-|
|----------x---x-------------x---x------------x----------3-2-0.-----x-|

PART 5
|---------(x)-(x)---------0-(x)0(x)-----------x-------------(x)--|
|-------3--x-3-x----------3--x-3-x--------(0)-x-(0)------3.--x---|
|-------0--x-0-x----------0--x-0-x---------2--x--2-------2.--x---|
|-------4--x-4-x----------2--x-2-x---------1--x--1-------2.--x---|
|-0--5-----x-5-x-----0--3----x-3-x---0--2-----x--2----0------x---|
|----------x---x-------------x---x------------x----------0.--x---|
                                                                ***
Repeat part 5 - 2 times.                                  Do Not hit the second time!


|----(x)-----0-(x)0(x)-----------x-----------(x)--(x)-|
|-3.--x------3--x-3-x--------(0)-x-(0)------3-x-3--x--|
|-0.--x------0--x-0-x---------2--x--2-------2-x-2--x--|
|-4.--x------2--x-2-x---------1--x--1-------2-x-2--x--|
|-5.--x-0--3----x-3-x---0--2-----x--2---0-----x----x--|
|-----x---------x---x------------x--------0---x-0--x--|

|---------(x)-(x)---------0-(x)0(x)-------------|
|-------3--x-3-x----------3--x-3-x-----(0).--3.-|
|-------0--x-0-x----------0--x-0-x------2-.--2.-|
|-------4--x-4-x----------2--x-2-x------1-.--2.-|
|-0--5-----x-5-x-----0--3----x-3-x---0--2-.-----|
|----------x---x-------------x---x-----------0.-|


PART 4
|-------(x)-(x)---------0-(x)0(x)-----------x-----------(x)--(x)-|
|-----3--x-3-x----------3--x-3-x--------(0)-x-(0)------3-x-3--x--|
|-----0--x-0-x----------0--x-0-x---------2--x--2-------2-x-2--x--|
|-----4--x-4-x----------2--x-2-x---------1--x--1-------2-x-2--x--|
|--5-----x-5-x-----0--3----x-3-x---0--2-----x--2---0-----x----x--|
|--------x---x-------------x---x------------x--------0---x-0--x--|

PART 5
|---------(x)-(x)---------0-(x)0(x)-----------x-------------|
|-------3--x-3-x----------3--x-3-x--------(0)-x-(0)----3.---|
|-------0--x-0-x----------0--x-0-x---------2--x--2-----2.---|
|-------4--x-4-x----------2--x-2-x---------1--x--1-----2.---|
|-0--5-----x-5-x-----0--3----x-3-x---0--2-----x--2---0------|
|----------x---x-------------x---x------------x--------0.---|


|-------(x)-(x)---------0-(x)0(x)-----------x------------(x)--(x)-|
|-----3--x-3-x----------3--x-3-x--------(0)-x-(0)-------3-x-3--x--|
|-----0--x-0-x----------0--x-0-x---------2--x--2--------2-x-2--x--|
|-----4--x-4-x----------2--x-2-x---------1--x--1--------2-x-2--x--|
|--5-----x-5-x-----0--3----x-3-x---0--2-----x--2---0------x----x--|
|--------x---x-------------x---x------------x---------0---x-0--x--|

|-------(x)-(x)---------0-(x)0(x)-----------x-----|
|-----3--x-3-x----------3--x-3-x--------(0)-x-(0)-|
|-----0--x-0-x----------0--x-0-x---------2--x--2--|
|-----4--x-4-x----------2--x-2-x---------1--x--1--|
|--5-----x-5-x-----0--3----x-3-x---0--2-----x--2--|
|--------x---x-------------x---x------------x-----|

If you want to make it real simple, just keep on playing part 3 until the song ends!

Enjoy this nice song :)

Andak
Norway
comments
We did not receive enough feedback on this tab! Please rate:
print report bad tab
1 2 3 4 5
2 comments total.
0 reply
BeatBuster 11 wrote on May 22 2007, 11:22 am

Akre you are awesome:) wanted to learn this song for a while, but couldn't find any tabs, and my musicianship ain't as good as yours:P so thanks:)

Greetings from Thomas

+1 reply
hurleygurley789 68 wrote on January 3 2008, 04:41 pm

only one problem here. capo on 1st fret.

I want to post or [tab]
guest
You may want to rate the tab now too:
select rating
Please do not post tabs as comments. Select "correction" instead!