Oops, an error
Loading. Please wait.

Photographs And Memories Tab

version 1
version 1

Intro

Whole song

Interactive

33,689 views 6 this week
6 commentsread comments
1 2 3 4 5
x 5
add to favorites
launch autoscroll
font size
0
reset
how to read this tab
guitar tuner
Autoscroll
slow
fast
+/-
esc
set tempo
stop
Help us to improve Ultimate-Guitar.com Take our survey!
×
----------------------------------------------------------------------------
               Photographs and Memories - Jason Reeves
----------------------------------------------------------------------------
Tabbed by: Brandon G
Email: terre.gable334@wku.edu

Tuning: Standard (EADGBe)
| /  slide up
| h  hammer-on
| p  pull-off

NOTE: This tab is NOT 100% accurate but the best I've seen anyone play it. I'm starting 
think nobody knows it but Jason and his sister.

Intro:
e|----10---------------10-------------8p7-----------7-----------5-------|
B|-------10---10----------10---10---------8---8-------7---7-------5---5-|
G|-----------------9----------------------------------------------------|
D|----------------------------------------------------------------------|
A|-/10-----10----9---9-------9----7-7-------7---5-5-----5---3-3-----3---|
E|----------------------------------------------------------------------|

e|-----3---------------0h2-------------2h3-----|
B|-------3---3-----3-------3-------3-------3---|
G|---------------2---2-------2---2---2-------2-|
D|-------------0---------------0---------------| Repeat from intro.
A|-2-2-----2-----------------------------------|
E|---------------------------------------------|

============================================================================
Suggest correction
comments
print report bad tab
6 comments total. Showing first comments.
-2 reply
C-Brownie 21 Sep 29, 2008 03:51 PM

I think the last part should go more like this...

e|-----3-----------------0h2-------------------|
B|-------3---3-------3-------3-------------2---|
G|---------------0h2---2--------2p0------0---0-|
D|----------------------------0-----0h2--------|
A|-2-2-----2-----------------------------------|
E|---------------------------------------------|

0 reply
heyhello 10 Jan 12, 2009 10:08 PM

great tab, great song :]

0 reply
Gable_Brandon 242 Jan 12, 2009 11:23 PM

Thank you and I just seen this but I think the last 2h3 should be a 3p2!! Sorry lol.

guest
You may want to rate the tab now too:
select rating
Wanna post a correction for this tab? Suggest correction