Oops, an error
Loading. Please wait.

Glory Come Down Tab

2,359 views 3 this week
no commentswrite comment
1 2 3 4 5
excellent!
x 2
add to favorites
launch autoscroll
font size
0
reset
how to read this tab
guitar tuner
Tab Pro tools
  • play this tab
  • loop segment
  • change instrument
  • show fretboard
  • metronome
Autoscroll
slow
fast
+/-
esc
set tempo
stop
Contributor
Title: Glory Come Down
by Jason Upton
Tabbed by: Triani-Sesiha

Note: Intro is in Keyboard I transposed it into Guitar

Intro:

E-----------------|
B-----------------|
G-----------------|   4X
D--5-5-5--3-------|
A--5-5-5--3-------|
E--3-3-3--1-------|

E-----------------|
B-----------------|
G-----------------|
D--5-5-5-5--------|
A--5-5-5-5--------|
E--3-3-3-3--------|
Father listen to our

E-----------------|
B-----------------|
G--8-8-8-8--------|
D--8-8-8-8--------|
A--6-6-6-6--------|
E-----------------|
earnest prayer

E-----------------|
B-----------------|
G-----------------|
D--5-5-5-5--3-----|
A--5-5-5-5--3-----|
E--3-3-3-3--1-----|
Jesus prayed it

E-----------------|
B-----------------|
G-----------------|
D--8-8-8-8--------|
A--8-8-8-8--------|
E--6-6-6-6--------|
years ago

E-----------------|
B-----------------|
G--8-8-8-8--------|
D--8-8-8-8--------|
A--6-6-6-6--------|
E-----------------|
That the glory you had

E-----------------|
B-----------------|
G--10-10-10-10----|
D--10-10-10-10----|
A--8--8--8--8-----|
E-----------------|
given him

E-----------------|
B-----------------|
G--8-8-8-8--------|
D--8-8-8-8--------|
A--6-6-6-6--------|
E-----------------|
We would somehow

E-----------------|
B-----------------|
G--7-7-7-7--------|
D--7-7-7-7--------|
A--5-5-5-5--------|
E-----------------|
come to know


E-----------------|
B-----------------|
G-----------------|
D--5-5-5-5--------|
A--5-5-5-5--------|
E--3-3-3-3--------|
So make us one according

E-----------------|
B-----------------|
G--8-8-8-8--------|
D--8-8-8-8--------|
A--6-6-6-6--------|
E-----------------|
to your plan

E-----------------|
B-----------------|
G-----------------|
D--5-5-5-5--3-----|
A--5-5-5-5--3-----|
E--3-3-3-3--1-----|
As in heaven

E-----------------|
B-----------------|
G-----------------|
D--8-8-8-8--------|
A--8-8-8-8--------|
E--6-6-6-6--------|
it will be

E-----------------|
B-----------------|
G--8-8-8-8--------|
D--8-8-8-8--------|
A--6-6-6-6--------|
E-----------------|
Fill us with the truth

E-----------------|
B-----------------|
G--10-10-10-10----|
D--10-10-10-10----|
A--8--8--8--8-----|
E-----------------|
and righteousness

E-----------------|
B-----------------|
G--8-8-8-8--------|
D--8-8-8-8--------|
A--6-6-6-6--------|
E-----------------|
You desire the world

E-----------------|
B-----------------|
G--7-7-7-7--------|
D--7-7-7-7--------|
A--5-5-5-5--------|
E-----------------|
to see

Chorus:
E-----------------|
B-----------------|
G-----------------|
D--5-----8--------|
A--5-----8--------|
E--3-----6--------|
Let your glory

E-----------------|
B-----------------|
G-----------------|
D--10----5--------|
A--10----5--------|
E--8-----3--------|
and honor

E-----------------|
B-----------------|
G-----------------|
D--5-----8-----10-|
A--5-----8-----10-|
E--3-----6-----8--|
Fall on our face

E-----------------|
B-----------------|
G-----------------|
D--5-----8--------|
A--5-----8--------|
E--3-----6--------|
Holy

E-----------------|
B-----------------|
G-----------------|
D--10----5--------|
A--10----5--------|
E--8-----3--------|
Father

E-----------------|
B-----------------|
G-----------------|
D--8-----10----5--|
A--8-----10----5--|
E--6-----8-----3--|
Rest in this place

Verse 2
E-----------------|
B-----------------|
G-----------------|
D--5-5-5-5--------|
A--5-5-5-5--------|
E--3-3-3-3--------|
The church is sick and need

E-----------------|
B-----------------|
G--8-8-8-8--------|
D--8-8-8-8--------|
A--6-6-6-6--------|
E-----------------|
of god alone

E-----------------|
B-----------------|
G-----------------|
D--5-5-5-5--3-----|
A--5-5-5-5--3-----|
E--3-3-3-3--1-----|
And people we must seek

E-----------------|
B-----------------|
G-----------------|
D--8-8-8-8--------|
A--8-8-8-8--------|
E--6-6-6-6--------|
his face

E-----------------|
B-----------------|
G--8-8-8-8--------|
D--8-8-8-8--------|
A--6-6-6-6--------|
E-----------------|
If we turn from all

E-----------------|
B-----------------|
G--10-10-10-10----|
D--10-10-10-10----|
A--8--8--8--8-----|
E-----------------|
unrighteousness

E-----------------|
B-----------------|
G--8-8-8-8--------|
D--8-8-8-8--------|
A--6-6-6-6--------|
E-----------------|
He'll forgive our

E-----------------|
B-----------------|
G--7-7-7-7--------|
D--7-7-7-7--------|
A--5-5-5-5--------|
E-----------------|
evil ways

E-----------------|
B-----------------|
G-----------------|
D--5-5-5-5--------|
A--5-5-5-5--------|
E--3-3-3-3--------|
So may the eyes of god

E-----------------|
B-----------------|
G--8-8-8-8--------|
D--8-8-8-8--------|
A--6-6-6-6--------|
E-----------------|
be on us here

E-----------------|
B-----------------|
G-----------------|
D--5-5-5-5--3-----|
A--5-5-5-5--3-----|
E--3-3-3-3--1-----|
Lord revive us

E-----------------|
B-----------------|
G-----------------|
D--8-8-8-8--------|
A--8-8-8-8--------|
E--6-6-6-6--------|
by your grace

E-----------------|
B-----------------|
G--8-8-8-8--------|
D--8-8-8-8--------|
A--6-6-6-6--------|
E-----------------|
Holy Spirit be

E-----------------|
B-----------------|
G--10-10-10-10----|
D--10-10-10-10----|
A--8--8--8--8-----|
E-----------------|
forever near

E-----------------|
B-----------------|
G--8-8-8-8--------|
D--8-8-8-8--------|
A--6-6-6-6--------|
E-----------------|
Saturate us

E-----------------|
B-----------------|
G--7-7-7-7--------|
D--7-7-7-7--------|
A--5-5-5-5--------|
E-----------------|
in this place

Chorus:
E-----------------|
B-----------------|
G-----------------|
D--5-----8--------|
A--5-----8--------|
E--3-----6--------|
Let your glory

E-----------------|
B-----------------|
G-----------------|
D--10----5--------|
A--10----5--------|
E--8-----3--------|
and honor

E-----------------|
B-----------------|
G-----------------|
D--5-----8-----10-|
A--5-----8-----10-|
E--3-----6-----8--|
Fall on our face

E-----------------|
B-----------------|
G-----------------|
D--5-----8--------|
A--5-----8--------|
E--3-----6--------|
Holy

E-----------------|
B-----------------|
G-----------------|
D--10----5--------|
A--10----5--------|
E--8-----3--------|
Father

E-----------------|
B-----------------|
G-----------------|
D--8-----10----5--|
A--8-----10----5--|
E--6-----8-----3--|
Rest in this place


Bridge:

E-----------------|
B-----------------|
G-----------------|
D--5-5-5-5--------|
A--5-5-5-5--------|
E--3-3-3-3--------|
Let the fire fall

E-----------------|
B-----------------|
G-----------------|
D--3-3-3-3--------|
A--3-3-3-3--------|
E--1-1-1-1--------|
Let the wind blow

E-----------------|
B-----------------|
G--3-3-3-3--------|
D--3-3-3-3--------|
A--1-1-1-1--------|
E-----------------|
Let the glory come down

*then
E-----------------|
B-----------------|
G-----------------|   =
D--5-5-5-5--------|
A--5-5-5-5--------|
E--3-3-3-3--------|

E-----------------|
B-----------------|
G-----------------|   =             =  2X
D--3-3-3-3--------|
A--3-3-3-3--------|
E--1-1-1-1--------|

E-----------------|
B-----------------|
G--3-3-3-3--------|   =
D--3-3-3-3--------|
A--1-1-1-1--------|
E-----------------|


Chorus:
E-----------------|
B-----------------|
G-----------------|
D--5-----8--------|
A--5-----8--------|
E--3-----6--------|
Let your glory

E-----------------|
B-----------------|
G-----------------|
D--10----5--------|
A--10----5--------|
E--8-----3--------|
and honor

E-----------------|
B-----------------|
G-----------------|
D--5-----8-----10-|
A--5-----8-----10-|
E--3-----6-----8--|
Fall on our face

E-----------------|
B-----------------|
G-----------------|
D--5-----8--------|
A--5-----8--------|
E--3-----6--------|
Holy

E-----------------|
B-----------------|
G-----------------|
D--10----5--------|
A--10----5--------|
E--8-----3--------|
Father

E-----------------|
B-----------------|
G-----------------|
D--8-----10----5--|
A--8-----10----5--|
E--6-----8-----3--|
Rest in this place


ei I finally made a tab of this song... hope you like it.. RATE it please...
Rock On....
                                                 Triani-Sesiha
comments
We did not receive enough feedback on this tab! Please rate:
print report bad tab
1 2 3 4 5
I want to post or [tab]
guest
You may want to rate the tab now too:
select rating
Please do not post tabs as comments. Select "correction" instead!