Oops, an error
Loading. Please wait.

You Belong To Me Chords

version 2
version 2

Whole song

503,729 views 693 this week
12 commentsread comments
1 2 3 4 5
x 143
add to favorites
launch autoscroll
font size
0
reset
transpose
0
reset
simplify chords
display chords
guitar tuner
Autoscroll
slow
fast
+/-
esc
set tempo
stop
Help us to improve Ultimate-Guitar.com Take our survey!
×
Author
Capo
6th fret
Capo 6th fret


Dmadd9/F    = xx3230  
Gsus4       = 3x301x


[Intro]

       C             Em                F                  C
e|-----------------|---------------0-|------------1-----|-----0---0-0---0-|
B|-----------------|-------0-------0-|-1------1-1-------|---1-1---1-1-1-1-|
G|-----------------|---0---0-----0---|h2---2-h2-2---2-0-|---0-0---0-0-0-0-|
D|-----2-0-2-0---0-|h2-----2---------|h3--------------3-|-2-----2-----2---|
A|-----3-3-3-3-3---|-----2-----------|------------------|-------3---------|
E|-----------------|-----0-----------|------------------|-----------------|

   F       Fm        C     G/B    Am       Dmadd9/F       G7sus4   C
e|-------1---------|---------------------|---0---------------|----------|
B|-------1-1-1-----|-1--------------1----|/3-3-------1-----1-|-------1--|
G|-----2---1-1-----|-0--------0h2-2------|/2-2-------0-0-0---|---0-0----| etc.
D|---3-------------|-2--------0h2-2------|-3-3-------3-3-3---|---2-2----|
A|---------------3-|----0---------0------|-------0-----------|-3--------|
E|-1-----------1---|-----h3-3------------|--------h3-3-------|----------|


[Verse 1]

C                  Em
 See the pyramids along the Nile
F                         C
 Watch the sunrise from a tropic isle
F       Fm              C       Am
 Just remember, darling all the while
Dmadd9/F            G7sus4
 You belong to me
 

[Verse 2] 
 
C                       Em
 See the marketplace in old Algiers
F                        C
 Send me photographs and souvenirs
F       Fm            C      G/B Am
 Just remember when a dream appears
Dmadd9/F    G7sus4  C
 You belong to me

 
[Chorus] 

C           C7       F
I'll be so alone without you
D7                       G
Maybe you'll be lonesome too
    Csus4
And blue


[Verse 3]

C                       Em
Fly the ocean in a silver plane
F                        C
See the jungle when it's wet with rain
F       Fm            C      G/B Am
Just remember 'til you're home again
Dmadd9/F    G7sus4  C
You belong to me


[Instrumental]

       C             Em                F                  C
e|-----------------|---------------0-|------------1-----|-----0---0-0---0-|
B|-----------------|-------0-------0-|-1------1-1-------|---1-1---1-1-1-1-|
G|-----------------|---0---0-----0---|h2---2-h2-2---2-0-|---0-0---0-0-0-0-|
D|-----2-0-2-0---0-|h2-----2---------|h3--------------3-|-2-----2-----2---|
A|-----3-3-3-3-3---|-----2-----------|------------------|-------3---------|
E|-----------------|-----0-----------|------------------|-----------------|

   F       Fm        C     G/B    Am       Dmadd9/F       G7sus4   C
e|-------1---------|---------------------|---0---------------|----------|
B|-------1-1-1-----|-1--------------1----|/3-3-------1-----1-|-------1--|
G|-----2---1-1-----|-0--------0h2-2------|/2-2-------0-0-0---|---0-0----| etc.
D|---3-------------|-2--------0h2-2------|-3-3-------3-3-3---|---2-2----|
A|---------------3-|----0---------0------|-------0-----------|-3--------|
E|-1-----------1---|-----h3-3------------|--------h3-3-------|----------|


[Chorus] 

C           C7       F
I'll be so alone without you
D7                       G
Maybe you'll be lonesome too
    Csus4
And blue


[Verse 4]

C                       Em
Fly the ocean in a silver plane
F                        C
See the jungle when it's wet with rain
F       Fm            C      G/B Am
Just remember 'til you're home again
Dmadd9/F    G7sus4  C
You belong to me



************************************

| h  Hammer-on
| /  Slide up

************************************
Suggest correction
comments
print report bad tab
12 comments total. Showing first comments.
-1 reply
Wondewall7 40 Mar 28, 2009 01:55 PM

A strumming pattern to this song is now posted in my blog in my profile so check it out

0 reply
Antarius 10 Mar 03, 2012 11:04 AM

Just amazing man... Thank you so much for your work, wonderful song!

0 reply
11497416 10 Apr 05, 2012 11:28 PM

Awsome! I just love it when the chords are actually right!! Thankyou!

guest
You may want to rate the tab now too:
select rating
Wanna post a correction for this tab? Suggest correction