Oops, an error
Loading. Please wait.

Euforia Y Furia Tab

20 views 1 this week
no commentswrite comment
1 2 3 4 5
3 more votes to show rating
add to favorites
launch autoscroll
font size
0
reset
how to read this tab
guitar tuner
Autoscroll
slow
fast
+/-
esc
set tempo
stop
Help us to improve Ultimate-Guitar.com Take our survey!
×
ESTE PUNTEO VA CON 2 GUITARRAS, UNA ACUSTICA Y OTRA CON
UNA DISTORCION, ALGO SUAVE Y EL VOLUMEN DE MODO QUE NO
TAPE A LA ACUSTICA.


E|----------------|---------------|----------------------------|
B|----------------|---------------|----------------------------|
G|-----10--9------|-----10--9-----|-----9--10--9--7------------|
D|--7---------10--|--7---------11-|--7---------------7---------|
A|----------------|---------------|---------------------8------|
E|----------------|---------------|------------------------10--|


E|----------------|------------------------------------------|
B|----------------|------------------------------------------|
G|-----10--9------|-----10--9-------------10--9--7-----------|
D|--7---------10--|--7---------11---7--5------------7-----5--|
A|----------------|------------------------------------8-----|
E|----------------|------------------------------------------|


Cualquier duda o pregunta escribanme a seba_5mil@
Suggest correction
Give kudos to tab author, rate the tab!
1 2 3 4 5
comments
print report bad tab
guest
You may want to rate the tab now too:
select rating
Wanna post a correction for this tab? Suggest correction