Oops, an error
Loading. Please wait.

Navegar Chords

10 views 1 this week
no commentswrite comment
1 2 3 4 5
3 more votes to show rating
add to favorites
launch autoscroll
font size
0
reset
transpose
0
reset
simplify chords
display chords
guitar tuner
Autoscroll
slow
fast
+/-
esc
set tempo
stop
Strumming
There is no strumming pattern for this song yet. and get +5 IQ
INTRO:

e -----------------------------|
B -----------------------------|
G -----------------------------|
D ---2--4-5-4-2----------------|
A --2-----------2-3-2-0--------|
E -0--------------------3-2-0--|

e -------------------------------------------|
B -------------------------------------------|
G -----------------4---4-4--2-2--0-0---------|
D ---2--4-5-4-2--4--------------------4-4--2-|
A --2----------------------------------------|
E -0-----------------------------------------|


 Em                  Am                  
Estoy perdiendo el rumbo
 Em                 B7
estoy perdido en el mar
 Em                          Am
no tengo claro hacia donde navegar
 Em                 B7           Emm E7 
o si en algun puerto te voy a encontrar.


Estribillo:
Am
Si perdi la direccion
  Em
y estoy solo en este mar
  B7                      Em-E7 
¿alguien me vendra a rescatar?
Am                   
En un barco sin timon 
 Em     
busco el mapa de tu amor
  B7                  Em
solo ya no quiero navegar...


Sigo buscando en el mapa
el punto en el cual me perdi
voy navegando a la deriva y sin timon
mientras crece la tormenta que hay en mi.

Solo:

e -----------------------------|
B -----------------------------|
G -----------------------------|
D ---2--4-5-4-2----------------|
A --2-----------2-3-2-0--------|
E -0--------------------3-2-0--|

e -------------------------------------------|
B -------------------------------------------|
G -----------------4---4-4--2-2--0-0---------|
D ---2--4-5-4-2--4--------------------4-4--2-|
A --2----------------------------------------|
E -------------------------------------------|

e -----------------------------------------|
B -------------------------5---------------|
G -----------------------4---4-0-2-0-------|
D ---2--4-5-4-2----------------------4-0-2-|
A --2-----------2-3-2-0--------------------|
E -----------------------------------------|


Repetir el estribillo.
Suggest correction
Give kudos to tab author, rate the tab!
1 2 3 4 5
comments
print report bad tab
guest
You may want to rate the tab now too:
select rating
Wanna post a correction for this tab? Suggest correction