Oops, an error
Loading. Please wait.

No Me Nombres Tab

29 views 1 this week
no commentswrite comment
1 2 3 4 5
3 more votes to show rating
add to favorites
×
Save as Personal and add changes to this tab that will be seen only by you. Learn more ›
×
You can save this tab as Personal to edit and correct it or add notes. All changes will be seen only by you. Learn more »
save as personal
new!
launch autoscroll
font size
0
reset
how to read this tab
guitar tuner
Autoscroll
slow
fast
+/-
esc
set tempo
stop
G:   320003
Em:  022000
Am:  002210
D:   000232
B7:  021202 / 024242
E:   022100
C#:  446654
Fm#: 244222
B:   224442
G#:  466544


---------------------------


[intro]
     G
E||-------|------------7--5------|
B||-------|------------------8---|
G||-------|------5/7-------------|
D||-------|----------------------|
A||-------|----------------------|
E||-------|----------------------|


  G
Ahora que parece
          Em
que para siempre no dura tanto
     Am
Que nunca... que toda la vida
      D
de repente es un rato... digo
  G
Ahora igual que antes
  Em
puedes para siempre
  Am    D             G    B7
odiarme   por un rato


E
No puedes para toda la vida
    C#
olvidar que también hubo alegría
F#m
Pero si prefieres
             B7
quedarte con años que olvidaste, entonces

 E
voy a pedirte no me nombres
C#
  para siempre no me nombres
F#m
para ese rato
                B7
que es toda la vida

G#           C#
Lo mejor lo voy a seguir dando
F#m          B7
te estoy cuidando
      G#          C#
Para siempre decir-te que no
F#m         B7             E
   no me nombres por favor

                               C#
Puedes olvidarme para toda la vida
     F#m                      B7
Olvidar que también hubo alegría
            E                                C#
Pero si prefieres quedarte con años que olvidaste
  F#m             B7              E           B
Entonces voy a pedirte que no me nombres


[solo]
     G                       Em          Am               D
E||--7----|------7/8---7---------|--------------------|----------5-----10//12-|
B||-------|----------------10\8--|--------------------|-------7---------------|
G||-------|----------------------|-----9\8/9-----9\5--|--5/7------------------|
D||-------|----------------------|--------------------|-----------------------|
A||-------|----------------------|--------------------|-----------------------|
E||-------|----------------------|--------------------|-----------------------|


       G                          Em
E||--10/12------10---10-------|-------12-12-------12-12-------12-10---------------|
B||------------------------12-|-10/12-------10/12-------10/12-------10/12\10--8---|
G||---------------------------|---------------------------------------------------|
D||---------------------------|---------------------------------------------------|
A||---------------------------|---------------------------------------------------|
E||---------------------------|---------------------------------------------------|


     Am                         D
E||--------------------------|----------11----11/12--12------------|
B||-8/10-8/10---8\\\7--8/10--|-12----12----------------------------|
G||--------------------------|-------------------------------------|
D||--------------------------|-------------------------------------|
A||--------------------------|-------------------------------------|
E||--------------------------|-------------------------------------|


E
No puedes para toda la vida
    C#
olvidar que también hubo alegría
F#m
Pero si prefieres
             B7
quedarte con años que olvidaste, entonces

 E
voy a pedirte no me nombres
C#
  para siempre no me nombres
F#m
para ese rato
                B7
que es toda la vida

G#           C#
Lo mejor lo voy a seguir dando
F#m          B7
te estoy cuidando
      G#          C#
Para siempre decir-te que no
F#m         B7             E
   no me nombres por favor

                               C#
Puedes olvidarme para toda la vida
     F#m                      B7
Olvidar que también hubo alegría
            E                                C#
Pero si prefieres quedarte con años que olvidaste
  F#m             B7              E
Entonces voy a pedirte que no me nombres


###-------------------------------------###
###  Tablatura de: Enrique Moraño       ###
###                emorano@  ###
###  para ATAME  ABR-2005  ###
###-------------------------------------###
Suggest correction
Give kudos to tab author, rate the tab!
1 2 3 4 5
comments
print report bad tab
guest
Wanna post a correction for this tab? Suggest correction