Oops, an error
Loading. Please wait.

Sin Ser Valiente Tab

version 2
version 2

Whole song

11 views 1 this week
no commentswrite comment
1 2 3 4 5
3 more votes to show rating
add to favorites
launch autoscroll
font size
0
reset
how to read this tab
guitar tuner
Autoscroll
slow
fast
+/-
esc
set tempo
stop
Aqui esta el solo de guitarra del final que prometi:

---------------------------------
-----2-3-7-7-5-5-2---8-7-7-5-5---
--3-4--------------------------3-    x2
-4-------------------------------
---------------------------------
---------------------------------

-10-9-7-10-9-7-10-9-6---12-10-9-12-10-9-12-10-7---10-9-7-10-9-7-10-9-6--6-3-3-3-2-2-0-0----
----------------------------------------------------------------------------------------3--
-------------------------------------------------------------------------------------------
-------------------------------------------------------------------------------------------
-------------------------------------------------------------------------------------------
-------------------------------------------------------------------------------------------

---12--10-----10--10-9-7-6-9-7--
-10--10--10-10------------------
--------------------------------
--------------------------------
--------------------------------
--------------------------------
Suggest correction
Give kudos to tab author, rate the tab!
1 2 3 4 5
comments
print report bad tab
guest
You may want to rate the tab now too:
select rating
Wanna post a correction for this tab? Suggest correction