Oops, an error
Loading. Please wait.

Como Olvidarte Tab

12 views 1 this week
no commentswrite comment
1 2 3 4 5
3 more votes to show rating
add to favorites
launch autoscroll
font size
0
reset
how to read this tab
guitar tuner
Autoscroll
slow
fast
+/-
esc
set tempo
stop
Help us to improve Ultimate-Guitar.com Take our survey!
×
        RE#      LA#       DOm     LA# 
e |------3------3----------6--------------|
b |----------6-----4---66---6-4----3-4-6--|
g |---------------------------------------|
d |---------------------------------------|
a |---------------------------------------|
e |---------------------------------------|

        RE#      LA#       DOm     LA# 
e |------3------3----------6--------------|
b |----------6-----4---66---6-4----3-4-6--|
g |---------------------------------------|
d |---------------------------------------|
a |---------------------------------------|
e |---------------------------------------|

"ESTA PRIMERA PARTE ES CON ARPEGIO"


RE#                LA# 
Cómo sacarte de mi mente
DOm                    SOL# 
Cómo decirle que no te piense
LA#                 DOm
Cómo le digo al corazón
    LA#      SOL#    RE# 
Que ya no estas... aquí


        RE#      LA#        DOm    LA# 
e |------3------3----------6---------------------|
b |----------6-----4---66---6-4----3-4-6---------|
g |----------------------------------------------|
d |----------------------------------------------|
a |----------------------------------------------|
e |----------------------------------------------|

RE#                     LA# 
No han sido fácil estos años
DOm              SOL# 
Pero tampoco me quejo
LA#                   DOm
Tengo al día el alquiler
           LA#         SOL#      RE# 
Y una foto tuya que me dice... olvídame

?DE AQUÍ EN ADELANTE RASGUEO?


LA#                   DOm           LA#          SOL# 
Tengo un perro que me sigue a todas partes donde voy
LA#                      DOm              LA#          SOL#
Tengo la guitarra de un amigo a la que le robo inspiración...
              RE# 
... antes de dormir


CORO:
LA#     SOL#         RE# 
Pero no se como olvidarte
 LA#            SOL#         RE# 
Y es como un disparo al corazón
LA#              SOL#           RE# 
Pensarte todo el tiempo y no tenerte
       DOm    SOL#            RE# 
Para decirte que... te sigo amando

  RE#      LA#         DOm    LA# 
e |-3------3----------6---------------|
b |-----6-----4---66---6-4----3-4-6---|
g |-----------------------------------|
d |-----------------------------------|
a |-----------------------------------|
e |-----------------------------------|

        RE#      LA#       DOm     LA# 
e |------3------3----------6--------------|
b |----------6-----4---66---6-4----3-4-6--|
g |---------------------------------------|
d |---------------------------------------|
a |---------------------------------------|
e |---------------------------------------|

RE#                             LA# 
De vez en cuando  tengo una aventura
DOm                SOL# 
Para calmar mi soledad
LA#                 DOm      LA#          SOL# 
Bloqueo mente y corazón para no pensar en ti
RE#                           LA# 
Y justo cuando empiezo a olvidarte
DOm                     SOL# 
Alguien me pregunta por ti
LA#                DOm         LA#              SOL# 
Tengo pensado seriamente en marcharme a otra ciudad
      RE# 
... lejos de aquí

CORO:

LA#     SOL#           RE# 
Pero no se como olvidarte
LA#             SOL#        RE# 
Y es como un disparo al corazón
LA#              SOL#          RE# 
Pensarte todo el tiempo y no tenerte
       DOm   SOL#            RE# 
Para decirte que... te sigo amando ¡jooooooooohhhh!

LA#   SOL#   RE#  /2

CORO:

LA#     SOL#           RE# 
Pero no se como olvidarte (no no no nooo)
LA#             SOL#        RE# 
Y es como un disparo al corazón (y es como un disparo al corazón)
LA#              SOL#          RE# 
Pensarte todo el tiempo y no tenerte
       DOm   SOL#            RE# 
Para decirte que... te sigo amando ¡jooooooooohhhh!

CORO:

LA#     SOL#           RE# 
Pero no se como olvidarte (pero no se como olvidarte)
LA#             SOL#        RE# 
Y es como un disparo al corazón (es como un disparo al corazon)
LA#              SOL#          RE# 
Pensarte todo el tiempo y no tenerte
       DOm   SOL#            RE# 
Para decirte que... te sigo amando

e |--1/3/1----------1------|
b |---------4--------------|
g |---------------3--------|
d |x-----------------------|
a |x-----------------------|
e |x-----------------------|
             RE#     LA#      RE# 
e |--1/3/1---------------------------|
b |-----------4----4--3--4--6--4-----|
g |-------------3--------------------|
d |----------------------------------|
a |----------------------------------|
e |----------------------------------|

hola mi nombre es alejandro hurtado y esta es mi primera transcripcion
espero q les guste es una buena cancion q se la dedico a a una persona
muy especial en mivida se llama TANIA A.V.O. decirle q la amo mucho
y q nose todavia TANIA "como olvidarte"

MAHR07@
Suggest correction
Give kudos to tab author, rate the tab!
1 2 3 4 5
comments
print report bad tab
guest
You may want to rate the tab now too:
select rating
Wanna post a correction for this tab? Suggest correction