Oops, an error
Loading. Please wait.

Gitanita Chords

187 views 3 this week
no commentswrite comment
1 2 3 4 5
3 more votes to show rating
add to favorites
launch autoscroll
font size
0
reset
transpose
0
reset
display chords
guitar tuner
×
Best way to learn
"Gitanita"
Autoscroll
slow
fast
+/-
esc
set tempo
stop
Esta es la corrección de la
  canción ya que la anterior
  tenia algunas fayas espero
  les guste.

  intro:

  1ra guitarra
  --------------:6
  --------------:5
  --------------:4  PUNTEO.1
  -----0-2--2-0-:3
  ---------0----:2
  0-1-----------:1
         

  2DA GUITARRA

  D,-D,D,D?,D,D?,D,D,-D,D,D?,D,D?,D,D,...
  ESTO SE REPITE HASTA QUE INICIA LOS VERSOS.
  (solo un rasgueo por nota)

  3RA GUITARRA
  -------------------------------:6
  -------------------------------:5
  -------------------------------:4  PUNTEO.2 X3
  -0-0-0-2-2-2-4-4-4-2-2-2-0-0-0-:3
  -------------------------------:2
  -------------------------------:1
        

  -------------------------------:6
  -------------------------------:5
  -------------------------------:4  PUNTEO.2.1
  -----------------------------0-:3
  ------------------------0-1-0--:2
  -------------------------------:1

  EL PUNTEO 2.1 ES LA CONTINUACION DE EL 2
  EL 2 Y 2.1 SE TOCAN DOS VECES.

  4TA GUITARRA
  -------------------------------:6
  -------------------------------:5
  ---------------3---------------:4  PUNTEO.3
  -------------2--0-2------2-0-0-:3
  ---------------------0-1-------:2
  -------------------------------:1

  (Esto suena bien pero si al final
   envés de tocar la 3ra en el segundo
   traste tocan la 4ta en el tercero y lo
   arrastran hasta 7mo suena mejor)


  5TA GUITARRA :1ER VERSO
  ESTA VA AL RITMO DE LA VOZ

  D
  GITANITA...

  G                D
  DE SUCIA ESPUMA DE MAR...

  G              D        D,D?,D,D*D,D*,D*,D*
  Y DE LLANTO... DE NIÃ?O.... (aquí también
                              un rasgueo por nota)
  Am            Em
  DONDE ESTA ...AQUELLA LUNA...

  Am            Em
  QUE PONIAS.. EN EL CIELO ....

  G                      D--D,D?,D,D*,D*,D*,D*
  CO..MO.. SI FUE..RA ..UNA SONRISA...(las flechas
                                     solo indican
  Am            Em                   A direccion)
  DONDE ESTAN ..LOS TATUAJES...

  Am                  Em
  QUE EN TUS MUSLOS...FLORECIAN....

  G                       D
  CO..MO...BOS..QUES... DE MISTERIO....

  G                  D
  EN TU MIE..L.... DE FANTASIA...S...

  *2DA GUITARRA

  *3RA GUITARRA

  *4TA GUITARRA

  *5TA GUITARRA :2DO VERSO

  D
  GITANITA..

   G            D
  DE.... MIS BESOS.....

  G                      D--D,D?,D,D*,D*,D*,D*
  Y DE LAS LEVE...S..CARISI...AS...

  Am                      Em
  TE AS MARCHADO... CON LA A..URORA....

  Am                       Em
  POR.. SUS LAGRI...MAS.... BONITAS...

  G                  D---D,D?,D,D*,D*,D*,D*
  Y AMI... ME AS.. DEJADO SOLO....

  Am                       Em
  CO..MO... A UNA...OLVIDADA AGUJA...

  Am               Em
  DES..NUDA.. EN..AMA..POLAS....

  G                 D
  EN.. UNA.. NO..CHE PERDIDA....


  D?
  6:0
  5:0
  4:0
  3:2
  2:3
  1:3

  D
  6:0
  5:0
  4:0
  3:2
  2:3
  1:2

  D*
  6:0
  5:0
  4:0
  3:2
  2:3
  1:0


  Am
  6:0
  5:0
  4:2
  3:2
  2:1
  1:0

  Em
  6:0
  5:2
  4:2
  3:0
  2:0
  1:0

  G
  6:3
  5:2
  4:0
  3:0
  2:0
  1:3

  Ahí esta muy fácil espero
  Que les guste. Ah y si siguen
  Sin hacer comentarios (buenos o malos)
  No les doy las
  transcripciones de Â?la perlaÂ?,
  Â?yo no existoÂ? y algunas que
  tengo por ahí.
    Que estén bien vale..
Suggest correction
Give kudos to tab author, rate the tab!
1 2 3 4 5
comments
print report bad tab
guest
You may want to rate the tab now too:
select rating
Wanna post a correction for this tab? Suggest correction