Oops, an error
Loading. Please wait.

Realidad Chords

13 views 1 this week
no commentswrite comment
1 2 3 4 5
3 more votes to show rating
add to favorites
launch autoscroll
font size
0
reset
transpose
0
reset
display chords
guitar tuner
×
Best way to learn
"Realidad"
Autoscroll
slow
fast
+/-
esc
set tempo
stop
Esta rola va dedicada pa´ todos los fans de este gran musico
que afortunadamente no esta quemado como muchos
telespañolitos que andan por ahí

Guitarra 1:
e : 7-5-------7-5--------------------------------3-3-3--
B : ----8-7-5-----8-7--5/7-2-2-2-3-5-5-3-2-3-0---------- 

e :--5---3-3-3---5-5-7-7-7-10-9-7-10-9-7-----7--------
B :5--5--------5-------------------------9-9---8-7-8-5

      
      
Guitarra 1: (Esto lo toca en toda la canción excepto en los    
             riffs)


        E           G             A              G        F#
B: --5-5-5-5-5-8-8-8-8-8-8-10-10-10-10-10-10-8-8-8-8-8-7-5-8-
   -7-8-5


Guitarra 2: 

Em      

   G
Realidad

                A    
Como duelen, tus horizontes

      G        F#
Tan  cercanos 

       Em
tan adentro


   G
Realidad

                A
Tu presencia es un diamante

    G    F#       Em  
Creciendo en la carne
    

    G
Realidad
              
 A
Tu verdad es ruido de uñas

         G      F#         
Contra dientes, 

      Em
dulcemente.


(Con distorsion)
RIFF 1 x3
RIFF 2
RIFF 1 x2 
RIFF 2 (agrega un E´5 al final)


    G
Realidad

                   A
Naces ya matando, cerezas

         G    F#       
En el latido 

         Em
de un vestido de mujer


    G
Realidad

            A 
De cenizas es tu piel

         G            F#     
Y de costillas rotas, 

        Em
es tu suelo


    G
Realidad
             
            A
Tu lengua es de basura

        G    F#       
Transparente, 

      Em
dulcemente


Guitarra 1:
e : 7-5-------7-5--------------------------------3-3-3--
B : ----8-7-5-----8-7--5/7-2-2-2-3-5-5-3-2-3-0---------- 

e :--5---3-3-3---5-5-7-7-7-10-9-7-10-9-7---
B :5--5--------5-------------------------8-


RIFF 1
E G F# G

RIFF 2
B D C# B A C B A G F# G 


El riff es en 5´s y los acordes son así:

     E   G    F#    B   D    C#   A    C
G:---9---12---11---16---19---18---14---17-
D:---9---12---11---16---19---18---14---17-
A:---7---10---9----14---17---16---12---15-

Saludos pa los YUCAS
Suggest correction
Give kudos to tab author, rate the tab!
1 2 3 4 5
comments
print report bad tab
guest
You may want to rate the tab now too:
select rating
Wanna post a correction for this tab? Suggest correction