Oops, an error
Loading. Please wait.

Sangre De Arcoiris Chords

20 views 3 this week
no commentswrite comment
1 2 3 4 5
3 more votes to show rating
add to favorites
launch autoscroll
font size
0
reset
transpose
0
reset
simplify chords
display chords
guitar tuner
×
Best way to learn
"Sangre De Arcoiris"
Autoscroll
slow
fast
+/-
esc
set tempo
stop
Quiobo hijos de la Colt Antimonio ai les va este tab que traigo arrastrando hace mucho y no habia mandado.
 
INTRO
Cm Gm Cm Gm E5 C5 E5 C5 E5 C5 E5 C5 Am

 Cm                  Gm
Sangre de arco iris lamía la calle
 Cm        Gm
esperando a un doctor,
 E5                   C5
con la pistola en la mano X4
 Am
para defender su dolor. X4

 Cm                   Gm
Sangre de arco iris, sangre de basura,
 Cm
te mueres como un perro
 Gm
herido por error 
 E5              C5      
por su dueño cazador. X4

Am 
Sangre de arco iris. X4

F5 F#5 A5 E5 F5 F#5

SOLO

B:----------------------------------------------------------------------------------
G:--------7-------------------7-------------------7--------------------7----------6-
D:-7-7-10--10-7-10-9---7-7-10--10-7------6-7-7-10--10-7-10-9----7-7-10--10-7-7-10---
A:-------------------10--------------7-10---------------------10--------------------

B:-----10---9---8----------10---9-------------------------------------------
G:-7-7----7---7---10-9-7-7----7--------------------------------------------
D:------------------------------- 7(12 VECES)-7(6 VECES)7-6-5-4-------------
A:- ------------------------------------------------------------8-7-6-5-----
E:----------------------------------------------------------------------9-8-


 Cm
Te desangras esta nochebuena
 Gm
ante los ojos de una novia
 Cm
que divide el rojo en siete
 Gm
después de haber sido abandonada
 E5                  C5
en la puerta de la iglesia X4 
 Am
del infierno de la soledad X4


Este fill se toca mientras suena cada verso con el Am

D:----0-3-5-5-3-5-
A:-0-3------------

Y como diria Bukowsky, naci para arrancar rosas de las avenidas de la muerte. 
Ai se ven
Suggest correction
Give kudos to tab author, rate the tab!
1 2 3 4 5
comments
print report bad tab
guest
You may want to rate the tab now too:
select rating
Wanna post a correction for this tab? Suggest correction