Oops, an error
Loading. Please wait.

Jugo De Tomate Tab

51 views 1 this week
no commentswrite comment
1 2 3 4 5
3 more votes to show rating
add to favorites
launch autoscroll
font size
0
reset
how to read this tab
guitar tuner
×
Best way to learn
"Jugo De Tomate"
Autoscroll
slow
fast
+/-
esc
set tempo
stop
intro:
--------------------------------------------!    
-------3-------------------3----------------!
--2^4----4-2-0^2-------2^4---4-2-0^2-----2--!(2veces)
-----------------5-2-2---------------5-2----!
--------------------------------------------!
--------------------------------------------!

---------------------------------!
---------------------------------!
---------------------------------!
-----2-5-2-5-2-2-------2-5-2-5-2-!
-2-5-------------2-2-5-----------!
---------------------------------!

inter:
-------------------------!
-------------------------!
-------------------------!
-----2-5-----2-2---------!
-2^5-----2-5-------------!
-------------------------!

final:
--------------------------------------------!    
-------3-------------------3----------------!
--2^4----4-2-0^2-------2^4---4-2-0^2-----2--!
-----------------5-2-2---------------5-2----!
--------------------------------------------!
--------------------------------------------!

----------------------------------------------!    
-------3-------------------3------------------!
--2^4----4-2-0^2-------2^4---4-2-0^2------2-2-!
-----------------5-2-2---------------5-2--3-3-!
------------------------------------------3-3-!
------------------------------------------0-0-!
                                          E E

(intro)
E
La tierra que te da la vida
E
da un tiempo para decidir
E
eligiendo inteligentemente
E
todo el mundo podra ser feliz

Fm
Jugo de tomate frio
C#m
jugo de tomate frio
E
en las venas
E
en las venas deberas tener
(inter)

Si queres ser un terrible vago
todo el dia panza arriba y a dormir
o elegiste ser un tipo capo 
siempre serio y que da temor  deberas tener

Jugo...
(inter)

Si queres triunfar con las mujeres
tener muchas que lloren por vos
tendras que ser muy poco inteligente 
tener dinero, y una buena voz

Jugo...
(inter)

Si queres ser un hombre importante
que se hable todo el dia de vos
SI queres inmortalizarte
como heroe, asesino o semidios

Jugo...
(final)

quino : quinox@
EL OJO PURPURA
Suggest correction
Give kudos to tab author, rate the tab!
1 2 3 4 5
comments
print report bad tab
guest
You may want to rate the tab now too:
select rating
Wanna post a correction for this tab? Suggest correction