Oops, an error
Loading. Please wait.

Compromiso Tab

25 views 1 this week
no commentswrite comment
1 2 3 4 5
3 more votes to show rating
add to favorites
×
Save as Personal and add changes to this tab that will be seen only by you. Learn more ›
×
You can save this tab as Personal to edit and correct it or add notes. All changes will be seen only by you. Learn more »
save as personal
new!
launch autoscroll
font size
0
reset
how to read this tab
guitar tuner
Autoscroll
slow
fast
+/-
esc
set tempo
stop
dar el ritmo pulsando rapidamente la cuerda manteniendo la posición,
bueno escuchandola sale rapido
(creo q esto se llama tremo con ritmo de semicorchea)

esto va con las notas de las estrofas de la version de los acordes

Solo:

e-13-12-10-------------13-12---------------------------------
B----------13-11-10-11-------11-10-8----8-10-11-10-8-10--8---
G------------------------------------10--------------------10
D------------------------------------------------------------
A------------------------------------------------------------
E------------------------------------------------------------
                       (esta parte se toca normalmente)
e---------------------|-------------------------------------------
B-8-9-10-12--14-15-17-|----15----15----18^-18-15----15------------
G---------------------|-14----14----14-----------17----17-14------
D---------------------|--------------------------------------17-15
A---------------------|-------------------------------------------
E---------------------|-------------------------------------------


ej el la primera nota q es Fa (cuerda 1 traste 13)
se toca varias veces de forma rápida y después se
pasa al mi(cuerda 1 traste 12)
osea
e-13-13-13-13-13...--12-12-12...-10-10-10... y asi todas las otras
B-------------------------------------------
G-------------------------------------------
D-------------------------------------------
A-------------------------------------------
E-------------------------------------------
Suggest correction
Give kudos to tab author, rate the tab!
1 2 3 4 5
comments
print report bad tab
guest
Wanna post a correction for this tab? Suggest correction