Oops, an error
Loading. Please wait.

Humedad Tab

version 1
version 1

Whole song

31 views 1 this week
no commentswrite comment
1 2 3 4 5
2 more votes to show rating
add to favorites
launch autoscroll
font size
0
reset
how to read this tab
guitar tuner
Autoscroll
slow
fast
+/-
esc
set tempo
stop
Help us to improve Ultimate-Guitar.com Take our survey!
×
Intro:    C    D7          Em D#m Dm
       e--8---------------5/7-7-6-5--------5---------
       B--8--6/8--6--5----6/8-8-7-6----3/5---5-3-----
       G------7/9--7--5---------------------------5--- X2
       D----------------------------------------------
       A----------------------------------------------
       E----------------------------------------------


Verso 1)

           C           D7   Am   G
   Cuando la noche me tome
                       C   D7   Am   G
   Y me lleve hacia atrás
             C        D7   Am   G
   No habrá luz ni miradas
                    C   D7   Am   G
   Ni destellos de mar


Verso 2)

  (En esta parte la primera guitarra hace la intro)

           C      D7   Em  D#m  Dm
   y si el día aparece
                 C   D7  Em  D#m  Dm
   No veras el color
          C       D7    Em  D#m  Dm
   De mi corazón fuerte
                  C   D7  Em
   Apagando al dolor


Estribillo: Arpegio melódico

                   F        Fm
   Qué es esta humedad que siento
                   C   D7   Em
   Un viento que arrasa adentro                     Pausado
                     F        Fm    C D7 Em  (G-F-G-F-G-F-G-F-G-G-G)
   Qué es esta humedad que siento


Verso 1)

   Cuando la noche me tome
   Y me lleve hacia atrás
   No habrá luz ni miradas
   Ni destellos de mar


Verso 2)

   y si el día aparece
   No verás el color
   De mi corazón fuerte
   Apagando al dolor


 Estribillo: Arpegio melódico

                    F        Fm
   Qué es esta humedad que siento
                    C   D7  Em
   Un viento que arrasa adentro
                 F                  Fm
   Los días más cortos son los más largos
        C  D7 Em
   Sin ti
               F       Fm
   Un lago de mármol blanco          Pausado
                  C  D7  Em   (G-F-G-F-G-F-G-F-G-G-G)
   De comienzo a fin


Arpegio Melódico del estribillo Se toca hasta el final

   F        Fm          C    D7    Em
e-----0-1-0-----1-0-------------------3-1-0-------
B----1-----1---1----1-1----1---6-5---1-----3-1----
G---2---------1------1----0---5-----0-------------
D--3---------3-----------2---------2--------------
A-----------------------3----5--------------------
E-------------------------------------------------


Esta melodía se toca junto al arpegio melódico al final

e--5/8--8--8--8--10-8---5/8-8-8-8-10-12---------------------
B--7/10-10-10-10-10-10--7/9-9-9-9-9--9---9h8----------------
G--------------------------------------------10-9-10/12-7/9-
D----------------------------------------------------------- X8
A-----------------------------------------------------------
E-----------------------------------------------------------


Saludos a todos los guitarreros chilenos y una mención muy especial
a la mejor banda emergente de chile.
Ley del mono
Suggest correction
Give kudos to tab author, rate the tab!
1 2 3 4 5
comments
print report bad tab
guest
You may want to rate the tab now too:
select rating
Wanna post a correction for this tab? Suggest correction