Oops, an error
Loading. Please wait.

Humedad Tab

version 2
version 2

Whole song

123 views 1 this week
no commentswrite comment
1 2 3 4 5
3 more votes to show rating
add to favorites
launch autoscroll
font size
0
reset
how to read this tab
guitar tuner
×
Best way to learn
"Humedad"
Autoscroll
slow
fast
+/-
esc
set tempo
stop
Bueno para que esta canción suene bien hay que estar
consciente que se toca a dos guitarras. Consideraremos
a la primera como la que hace el intro, los arpegios,
el solo y los acordes en posiciones más agudas. La segunda
guitarra es la que toca Javiera Parra y es la de los acordes
simples.

Explicare la primera guitarra, vean esta solo sí quieren
tocarla bien a nivel de grupo musical, si quieren sacarla
para tocarla acústico para una fogata o algo así vean la segunda
guitarra mas abajo.

Intro: aquí pueden tocar los espacios que salen o como acordes
(se tocan las posiciones con cejillo, esto depende de que les
sea más fácil).

 DO  Rem/Mim REm DO   MIm-MIm-RE#m-REm

 e--8---------------5/7-7-6-5--------5---------
 B--8--6/8--6--5----6/8-8-7-6----3/5---5-3-----
 G------7/9--7--5---------------------------5-- X2
 D---------------------------------------------
 A---------------------------------------------
 E---------------------------------------------

Luego de esto comienza el rasgueo del guitarrista del grupo
que suena en un tono agudo. Esto es solo para el primer párrafo.
Él toca los acordes DoM - Do* - Lam - SolM:

   DO   DO*  LAm  SOL 
 e--8----8----8---10-----
 B--8----8----10--12-----
 G--9----9----9---12-----
 D--10---12---8---12-----
 A--10---10-------10-----
 E--8----8--------10-----

       DO          DO*   LAm SOL 
Cuando la noche me tome
           DO      DO*   LAm SOL 
Y me lleve hacia atrás
         DO       DO*    LAm SOL 
No habrá luz ni miradas
             DO  DO*     LAm SOL 
Ni destellos de mar


En el segundo párrafo la primera guitarra acompaña la canción
tocando el intro de nuevo.
Luego en el coro el guitarrista toca el siguiente arpegio 2 veces
y luego la parte final con los acordes:

e-----0-1-0-----1-0-------------1-0---0-0---3-1-3-1-3-1-333-
B----1-1---1---1----1-1----1---3-----1-1----3-1-3-1-3-1-333-
G---2---------1------1----0---2-----0-------4-2-4-2-4-2-444-
D--3---------3-----------2---------2--------5-3-5-3-5-3-555-
A-----------------------3-------------------5-3-5-3-5-3-555-
E-------------------------------------------3-1-3-1-3-1-333-


Viene el intro tocado 2 veces, y después los 2 párrafos tocados
como se indico anteriormente.
Luego se toca el arpegio en el segundo coro, ojo que tiene una
leve modificación en la parte final.

e-----0-1-0-----1-0-------------1-0---3-1-0-------
B----1-1---1---1----1-1----1---3-----1-----3-1----
G---2---------1------1----0---2-----0-------------
D--3---------3-----------2---------2--------------
A-----------------------3-------------------------
E-------------------------------------------------

Después una especie de solo que no alcance a sacar, acompañada
todo el tiempo por el arpegio anterior.
El arpegio suena hasta que se acaba la canción.

AHORA VIENE LA SEGUNDA GUITARRA: la que toca Javiera Parra y
LA más simple.

Para los dos párrafos se tocan estos acordes:

   DO   REm  LAm  SOL 
 e--0----1----0---3-----
 B--1----3----1---3-----
 G--0----2----2---0-----
 D--2----0----2---0-----
 A--3----0--------2-----
 E--0----0--------3-----

       DO          REm   LAm SOL 
Cuando la noche me tome
           DO      REm   LAm SOL 
Y me lleve hacia atrás
         DO       REm    LAm SOL 
No habrá luz ni miradas
             DO  REm     LAm SOL 
Ni destellos de mar

        DO     REm       LAm SOL 
Y si el día aparece
            DO  REm      LAm SOL 
no veras el color
        DO      REm      LAm SOL 
y en mi corazón fuerte
            DO  REm      LAm (se mantiene este La)
apagando al dolor


Coro:

                  FA     FAm
Qué es esta humedad que siento
              DO   REm    LAm
Un viento que arrasa adentro
                 FA      FAm   DO  REm LAm
Que es esta humedad que siento

Luego: SolM-FaM-SolM-FaM-SolM-FaM-SolM-SolM-SolM
Ahora vienen los 2 párrafos del principio tocados de la
misma forma y el segundo coro:

                FA      FAm
Qué es esta humedad que siento
                 DO  REm  LAm
Un viento que arrasa adentro
             FA                 FAm
Los días más cortos son los más largos
       DoM Rem Lam
Sin ti
           FA     FAm
Un lago de mármol blanco
              DoM Rem Lam
De comienzo a fin

Luego: SolM-FaM-SolM-FaM-SolM-FaM-SolM-SolM-SolM

El Rem en el coro puede que paresca raro al principio pero si
se toca, tengan ojo cuando escuchen la cancion, ademas que
coincide bien con el arpegio que acompaña. Otro punto importante
es que cuando hacen el cambio de Rem a Lam, hagan un Lam7 es decir
no aprieten el segundo espacio en la terdera cuerda y hagan un
cambio muy rapido a Lam y va a sonar perfecto.


Por supuesto si quieren tocar esta canción con una sola
guitarra acustica y que suena lo mas parecida posible pueden
hacer una mezcla con la primera y segunda guitarra.
Hice esta partitura viendo al grupo en vivo y escuchando muchas
veces la canción, realmente es una partitura casi identica
a lo que tocan originalmene, ojala les guste.
Suggest correction
Give kudos to tab author, rate the tab!
1 2 3 4 5
comments
print report bad tab
guest
You may want to rate the tab now too:
select rating
Wanna post a correction for this tab? Suggest correction