Oops, an error
Loading. Please wait.

Maldita Primavera Bass Tab

29 views 1 this week
no commentswrite comment
1 2 3 4 5
3 more votes to show rating
add to favorites
launch autoscroll
font size
0
reset
guitar tuner
×
Best way to learn
"Maldita Primavera"
Autoscroll
slow
fast
+/-
esc
set tempo
stop
Antes que nada dedico esta trascripción a mi gran amor...
quiero que sepas que te amo y eres lo más importante para mí

Verso 1

G|-----------------------------------------------------------|
D|-----------------------------------------------------------|
A|-----1------1------1-------5------5-------1----------3---3-|
E|-1------1------1------3-------3-------3------1----1--------|

Fue mas o menos así... dulce embustera la maldita primavera

G|--------------------------------------------------------|
D|--------------------------------------------------------|
A|---1---1---1---5---5---1-----3---3---1----3?3---1---1---|
E|-1---1---1---3---3---3---1-1-----------1-1--------1---1-|

Que queda de un sueño erótico ...            pienso en ti...


Coro 1

G|---------------------------------------------------------0-|
D|------------------------------3---2---0----------2---3-----|
A|---0---1---3----0---1---3----------------3---3-------------|
E|-1-----------1---------------------------------------------|

Si....                                      la maldita primavera...

G|----------------------------------------------------------------|
D|--------------3---2---0-----------------------------------------|
A|---0---1---3--------------1--1--1--------3---3---1---1-----1----|
E|-1----------------------------------1---1---------------1-----1-|

Que sueño si...                              solo a mí...

El Verso 2 y Coro 2 son iguales al Verso 1 y Coro 1

Al final del Coro 2 se toca esto 

G|-------------------------------------------------------|
D|-------------------------------------------------------|
A|--------3--3---1--1---1---1---1---1---1---1------------|
E|--1?1---------------1---1---1---1---1---1---1----------|

Déjame amarte...                               pienso en ti...

Fin
Suggest correction
Give kudos to tab author, rate the tab!
1 2 3 4 5
comments
print report bad tab
guest
You may want to rate the tab now too:
select rating
Wanna post a correction for this tab? Suggest correction